Guitaretab - guitar tabs
Song name
# A B C D E F G H I J K L M N O P Q R S T U V W X Y Z

Misc Unsigned Bands - 18 Underage - My Falling Angel tab

ARTIST: UnderAge (composed by Tayler Suckoll)
SONG: My Falling Angel
TABBED BY: Sasha Mezhov
TUNING: eBGDAE

RIFF A
e-----------------------------------------------------------------|
B-----------------------------------------------------------------|
G-----------------------------------------------------------------|
D---------555555667777777533333330--------------------------------|
A-33333333333333445555555311111110--------------------------------|
E-11111111--------------------------------------------------------|

RIFF B
e-----------------------------------------------------------------|
B-----------------------------------------------------------------|
G--1-2---1-------------1-2---1------------------------------------|
D-2-2--------1-2---1--2-2--------1-2---1--------------------------|
A-----------2-2-----------------2-2-------5-5-777-----------------|
E-----------------------------------------3-3-555-----------------|

RIFF C
e-----------------------------------------------------------------
B-----------------------------------------------------------------
G--1-2---1-------------1-2---1-------------1-2---1----------------
D-2-2--------1-2---1--2-2--------1-2---1--2-2--------1-2---1------
A-----------2-2-----------------2-2-----------------2-2-----------
E-----------------------------------------------------------------
[ Tab from: http://www.guitaretab.com/m/misc-unsigned-bands/91331.html ]
------------------------------------------------------------------|
------------------------------------------------------------------|
--1-2---1---------------------------------------------------------|
-2-2--------------------------------------------------------------|
-----------5-5-777------------------------------------------------|
-----------3-3-555------------------------------------------------|

RIFF D
e-----------------------------------------------------------------|
B-----------------------------------------------------------------|
G-----------------------------------------------------------------|
D---------5555556677777775333333-3-3------------------------------|
A-3333333333333344555555531111111-1-------------------------------|
E-11111111--------------------------------------------------------|

RIFF E
e-----------------------------------------------------------------|
B-----------------------------------------------------------------|
G-----------------------------------------------------------------|
D-----------------------------------------------------------------|
A-5555777799999997555577779999997755557~ let ring ----------------|
E-3333555577777775333355557777775533335~ let ring ----------------|

RIFF F
e-----------------------------------------------------------------|
B-----------------------------------------------------------------|
G-----------------------------------------------------------------|
D---------555555667777777533333355--------------------------------|
A-33333333333333445555555311111133--------------------------------|
E-11111111--------------------------------------------------------|

LAST NOTE
e--------------|
B--------------|
G--------------|
D-3~ let ring -|
A-3~ let ring -|
E-1~ let ring -|

ORDER:
RIFF A 3 times  
RIFF B 1 time
RIFF C 2 times
RIFF D 2 times
RIFF B 1 time
RIFF C 2 times
RIFF E 1 time
RIFF D 2 times
RIFF F 1 time
LAST NOTE
Related for 18 Underage - My Falling Angel tab
Advertisement will be closed in 10 seconds