Guitaretab - guitar tabs
Song name
# A B C D E F G H I J K L M N O P Q R S T U V W X Y Z

Misc Unsigned Bands - Andy Gullahorn- If I Were tab

http://www.andygullahorn.com/Home.html
READ THIS FIRST:
OPEN C  TUNNING
THATS CGCGCE
YOU NEED TO CAPO THE 6TH FRET!

|--------------------------------------|
|--------------------------------------|
|--------------------------------------|
|--0-0-0-0-0-0-2-2-2-0-----------------|
|--5-5-5-5-5-0-4-4-4-5-----------------|
|--0-0-0-0-0-0-0-0-0-0-----------------|
if i were the devil i wouldnt wear red

|--------------------------------------|
|--------------------------------------|
|--------------------------------------|
|-2-2-2-0-4-4-4-0-0-0-0-0--------------|
|-4-4-4-5-2-2-2-0-5-5-5-0--------------|
|-0-0-0-0-0-0-0-0-5-5-5-4--------------|
i wouldnt have horns or a pitchfork

|--------------------------------------|
|--------------------------------------|
|--------------------------------------|
|--0-0-0-0-0-0-2-2-2-0-----------------|
|--5-5-5-5-5-0-4-4-4-5-----------------|
|--0-0-0-0-0-0-0-0-0-0-----------------|
i wouldnt breath fire cuz it might give

|--------------------------------------|
|--------------------------------------|
|--------------------------------------|
|-2-2-2-0-4-4-4-0-0-0-0-0--------------|
|-4-4-4-5-2-2-2-0-5-5-5-0--------------|
|-0-0-0-0-0-0-0-0-5-5-5-4--------------|
me away.

|--------------------------------------|
|--------------------------------------|
|--------------------------------------|
|--0-0-0-0-0-0-2-2-2-0-----------------|
|--5-5-5-5-5-0-4-4-4-5-----------------|
|--0-0-0-0-0-0-0-0-0-0-----------------|
but if i were the devil youd never know

|--------------------------------------|
|--------------------------------------|
|--------------------------------------|
|-2-2-2-0-4-4-4-0-0-0-0-0--------------|
|-4-4-4-5-2-2-2-0-5-5-5-0--------------|
|-0-0-0-0-0-0-0-0-5-5-5-4--------------|
id befriend you quick and corrupt you slow

|--------------------------------------|
|--------------------------------------|
|--------------------------------------|
|--0-0-0-0-0-0-2-2-2-0-----------------|
|--5-5-5-5-5-0-4-4-4-5-----------------|
|--0-0-0-0-0-0-0-0-0-0-----------------|
so you dont notice untill its
|--------------------------------------|
|--------------------------------------|
|--------------------------------------|
|-2-2-2-0-4-4-4-0-0-0-0-0--------------|
|-4-4-4-5-2-2-2-0-5-5-5-0--------------|
|-0-0-0-0-0-0-0-0-5-5-5-4--------------|
far too late

|--------------------------------------|
|--------------------------------------|
|-----------------3-3-3-3-4-4-4-4------|
|-5-5-5-5-5-5-5-5-0-0-0-0-0-0-0-0------|
|-2-2-2-2-2-2-2-2-3-3-3-3-4-4-4-4------|
|-2-2-2-2-2-2-2-2-0-0-0-0-0-0-0-0------|
if i were the devil if i were the devil...

|--------------------------------------|
|--------------------------------------|
|--------------------------------------|
|--0-0-0-0-0-0-2-2-2-0-----------------|
|--5-5-5-5-5-0-4-4-4-5-----------------|
|--0-0-0-0-0-0-0-0-0-0-----------------|
if i were the devil id spend all day

|--------------------------------------|
|--------------------------------------|
|--------------------------------------|
|-2-2-2-0-4-4-4-0-0-0-0-0--------------|
|-4-4-4-5-2-2-2-0-5-5-5-0--------------|
|-0-0-0-0-0-0-0-0-5-5-5-4--------------|
lowering standards of whats okay

|--------------------------------------|
|--------------------------------------|
|--------------------------------------|
|--0-0-0-0-0-0-2-2-2-0-----------------|
|--5-5-5-5-5-0-4-4-4-5-----------------|
|--0-0-0-0-0-0-0-0-0-0-----------------|
to think to say to watch on
|--------------------------------------|
|--------------------------------------|
|--------------------------------------|
|-2-2-2-0-4-4-4-0-0-0-0-0--------------|
|-4-4-4-5-2-2-2-0-5-5-5-0--------------|
|-0-0-0-0-0-0-0-0-5-5-5-4--------------|
your tv

|--------------------------------------|
|--------------------------------------|
|--------------------------------------|
|--0-0-0-0-0-0-2-2-2-0-----------------|
|--5-5-5-5-5-0-4-4-4-5-----------------|
|--0-0-0-0-0-0-0-0-0-0-----------------|
id break down the value of promises kept
|--------------------------------------|
|--------------------------------------|
|--------------------------------------|
|-2-2-2-0-4-4-4-0-0-0-0-0--------------|
|-4-4-4-5-2-2-2-0-5-5-5-0--------------|
|-0-0-0-0-0-0-0-0-5-5-5-4--------------|
and fade out truth till theres nothing left

|--------------------------------------|
|--------------------------------------|
|--------------------------------------|
|--0-0-0-0-0-0-2-2-2-0-----------------|
|--5-5-5-5-5-0-4-4-4-5-----------------|
|--0-0-0-0-0-0-0-0-0-0-----------------|
cept gossip and lies popping up as thick as weeds

|--------------------------------------|
|--------------------------------------|
|-----------------3-3-3-3-4-4-4-4------|
|-5-5-5-5-5-5-5-5-0-0-0-0-0-0-0-0------|
|-2-2-2-2-2-2-2-2-3-3-3-3-4-4-4-4------|
|-2-2-2-2-2-2-2-2-0-0-0-0-0-0-0-0------|
if i were the devil if i were the devil


CHORUS

|-------------------------------------|
|---------2-2-2-2---------------------|
|---------0-0-0-0---------------------|
|-0-0-0-0-2-2-2-2-5-5-5-5-0-0-0-0-----|
|-5-5-5-5---------2-2-2-2-5-5-5-5-----|
|-0-0-0-0---------2-2-2-2-5-5-5-5-----|
i might not be as foreign as you think

|-------------------------------------|
|---------2-2-2-2---------------------|
|---------0-0-0-0---------------------|
|-0-0-0-0-2-2-2-2-5-5-5-5-0-0-0-0-----|
|-5-5-5-5---------2-2-2-2-5-5-5-5-----|
|-0-0-0-0---------2-2-2-2-5-5-5-5-----|
cuz i wouldnt always show my evil side

|-------------------------------------|
|---------2-2-2-2---------------------|
|---------0-0-0-0---------------------|
|-0-0-0-0-2-2-2-2-5-5-5-5-0-0-0-0-----|
|-5-5-5-5---------2-2-2-2-5-5-5-5-----|
|-0-0-0-0---------2-2-2-2-5-5-5-5-----|
ive got the time and patience just to wait

|-------------------------------------|
|-----------------2-2-2-2-2-2-2-------|
|-----------------0-0-0-0-0-0-0-------|
|-0-0-0-0-4-4-4-4-2-2-2-2-2-2-2-------|
|-5-5-5-5-5-5-5-5-0-0-0-0-0-0-0-------|
|-5-5-5-5-4-4-4-4-0-0-0-0-0-0-0-------|
and steal your soul just one sin at a time
[ Tab from: http://www.guitaretab.com/m/misc-unsigned-bands/91336.html ]
|-------------------------------------|
|-------------------------------------|
|-----------------3-3-3-3-4-4-4-4-----|
|-5-5-5-5-5-5-5-5-0-0-0-0-0-0-0-0-----|
|-2-2-2-2-2-2-2-2-3-3-3-3-4-4-4-4-----|
|-2-2-2-2-2-2-2-2-0-0-0-0-0-0-0-0-----|
like i would if i were


|--------------------------------------|
|--------------------------------------|
|--------------------------------------|
|--0-0-0-0-0-0-2-2-2-0-----------------|
|--5-5-5-5-5-0-4-4-4-5-----------------|
|--0-0-0-0-0-0-0-0-0-0-----------------|
no im not the devil but if i were

|--------------------------------------|
|--------------------------------------|
|--------------------------------------|
|-2-2-2-0-4-4-4-0-0-0-0-0--------------|
|-4-4-4-5-2-2-2-0-5-5-5-0--------------|
|-0-0-0-0-0-0-0-0-5-5-5-4--------------|
id take gods people and split em up

|--------------------------------------|
|--------------------------------------|
|--------------------------------------|
|--0-0-0-0-0-0-2-2-2-0-----------------|
|--5-5-5-5-5-0-4-4-4-5-----------------|
|--0-0-0-0-0-0-0-0-0-0-----------------|
to keep there minds off who theyre

|--------------------------------------|
|--------------------------------------|
|--------------------------------------|
|-2-2-2-0-4-4-4-0-0-0-0-0--------------|
|-4-4-4-5-2-2-2-0-5-5-5-0--------------|
|-0-0-0-0-0-0-0-0-5-5-5-4--------------|
called to be

|--------------------------------------|
|--------------------------------------|
|--------------------------------------|
|--0-0-0-0-0-0-2-2-2-0-----------------|
|--5-5-5-5-5-0-4-4-4-5-----------------|
|--0-0-0-0-0-0-0-0-0-0-----------------|
so theyre no longer fighting over living or dead

|--------------------------------------|
|--------------------------------------|
|--------------------------------------|
|-2-2-2-0-4-4-4-0-0-0-0-0--------------|
|-4-4-4-5-2-2-2-0-5-5-5-0--------------|
|-0-0-0-0-0-0-0-0-5-5-5-4--------------|
its is it the body or just the bread

|--------------------------------------|
|--------------------------------------|
|--------------------------------------|
|--0-0-0-0-0-0-2-2-2-0-----------------|
|--5-5-5-5-5-0-4-4-4-5-----------------|
|--0-0-0-0-0-0-0-0-0-0-----------------|
while all the unfed die hungry on

|--------------------------------------|
|--------------------------------------|
|--------------------------------------|
|-2-2-2-0-4-4-4-0-0-0-0-0--------------|
|-4-4-4-5-2-2-2-0-5-5-5-0--------------|
|-0-0-0-0-0-0-0-0-5-5-5-4--------------|
the street

|--------------------------------------|
|--------------------------------------|
|-----------------3-3-3-3-4-4-4-4------|
|-5-5-5-5-5-5-5-5-0-0-0-0-0-0-0-0------|
|-2-2-2-2-2-2-2-2-3-3-3-3-4-4-4-4------|
|-2-2-2-2-2-2-2-2-0-0-0-0-0-0-0-0------|
if i were the devil if i were the devil


CHORUS


|-------------------------------------|
|---------2-2-2-2---------------------|
|---------0-0-0-0---------------------|
|-0-0-0-0-2-2-2-2-5-5-5-5-0-0-0-0-----|
|-5-5-5-5---------2-2-2-2-5-5-5-5-----|
|-0-0-0-0---------2-2-2-2-5-5-5-5-----|
i might not be as foreign as you think

|-------------------------------------|
|---------2-2-2-2---------------------|
|---------0-0-0-0---------------------|
|-0-0-0-0-2-2-2-2-5-5-5-5-0-0-0-0-----|
|-5-5-5-5---------2-2-2-2-5-5-5-5-----|
|-0-0-0-0---------2-2-2-2-5-5-5-5-----|
cuz i wouldnt always show my evil side

|-------------------------------------|
|---------2-2-2-2---------------------|
|---------0-0-0-0---------------------|
|-0-0-0-0-2-2-2-2-5-5-5-5-0-0-0-0-----|
|-5-5-5-5---------2-2-2-2-5-5-5-5-----|
|-0-0-0-0---------2-2-2-2-5-5-5-5-----|
ive got the time and patience just to wait

|-------------------------------------|
|-----------------2-2-2-2-2-2-2-------|
|-----------------0-0-0-0-0-0-0-------|
|-0-0-0-0-4-4-4-4-2-2-2-2-2-2-2-------|
|-5-5-5-5-5-5-5-5-0-0-0-0-0-0-0-------|
|-5-5-5-5-4-4-4-4-0-0-0-0-0-0-0-------|
and steal your soul just one sin at a time

|-------------------------------------|
|-------------------------------------|
|-----------------3-3-3-3-4-4-4-4-----|
|-5-5-5-5-5-5-5-5-0-0-0-0-0-0-0-0-----|
|-2-2-2-2-2-2-2-2-3-3-3-3-4-4-4-4-----|
|-2-2-2-2-2-2-2-2-0-0-0-0-0-0-0-0-----|
like i would if i were

|-------------------------------------------|
|-----------------2-2-2-2-2-2-2-2-----------|
|-----------------0-0-0-0-0-0-0-0-----------|
|-5-5-5-5-0-0-0-0-2-2-2-2-2-2-2-2-----------|
|-2-2-2-2-5-5-5-5-0-0-0-0-0-0-0-0-----------|
|-2-2-2-2-0-0-0-0-0-0-0-0-0-0-0-0-----------|
id make mom and dads who never stick around

|-------------------------------------------|
|-----------------2-2-2-2-2-2-2-2-----------|
|-----------------0-0-0-0-0-0-0-0-----------|
|-5-5-5-5-0-0-0-0-2-2-2-2-2-2-2-2-----------|
|-2-2-2-2-5-5-5-5-0-0-0-0-0-0-0-0-----------|
|-2-2-2-2-0-0-0-0-0-0-0-0-0-0-0-0-----------|
pain so bad you have to drink do drown

|-------------------------------------------|
|-----------------2-2-2-2-2-2-2-2-----------|
|-----------------0-0-0-0-0-0-0-0-----------|
|-5-5-5-5-0-0-0-0-2-2-2-2-2-2-2-2-----------|
|-2-2-2-2-5-5-5-5-0-0-0-0-0-0-0-0-----------|
|-2-2-2-2-0-0-0-0-0-0-0-0-0-0-0-0-----------|
and guilt so i can kick you when your down

|-------------------------------------|
|-------------------------------------|
|-----------------3-3-3-3-4-4-4-4-----|
|-5-5-5-5-5-5-5-5-0-0-0-0-0-0-0-0-----|
|-2-2-2-2-2-2-2-2-3-3-3-3-4-4-4-4-----|
|-2-2-2-2-2-2-2-2-0-0-0-0-0-0-0-0-----|
and i would if i were


|--------------------------------------|
|--------------------------------------|
|--------------------------------------|
|--0-0-0-0-0-0-2-2-2-0-----------------|
|--5-5-5-5-5-0-4-4-4-5-----------------|
|--0-0-0-0-0-0-0-0-0-0-----------------|
if i were the devil i wouldnt wear red


|--------------------------------------|
|--------------------------------------|
|--------------------------------------|
|-2-2-2-0-4-4-4-0-0-0-0-0--------------|
|-4-4-4-5-2-2-2-0-5-5-5-0--------------|
|-0-0-0-0-0-0-0-0-5-5-5-4--------------|


|--------------------------------------|
|--------------------------------------|
|--------------------------------------|
|--0-0-0-0-0-0-2-2-2-0-----------------|
|--5-5-5-5-5-0-4-4-4-5-----------------|
|--0-0-0-0-0-0-0-0-0-0-----------------|
i wouldnt breath fire cuz it might give me away

there are a couple of breaks where he plays stuff thats easy to learn. except theres two
parts in those breaks
Related for Andy Gullahorn- If I Were tab
Advertisement will be closed in 10 seconds