Song name
# A B C D E F G H I J K L M N O P Q R S T U V W X Y Z

Misc Unsigned Bands - No Way - Houston We Have A Problem tab

Intro(2 times then fade out)
e-------------------------------
B-------------------------------
G-------------------------------
D-------------------------------
A-------------------------------
E--22223--2222345-22223--2222345   

Verse 1 (5 times then a guitar screech after the 2nd)
e--------------------------------------------------------
B--------------------------------------------------------
G--------------------------------------------------------
D--33333-------66666-------88888-------77777-------------
A--11111-33333-44444-66666-66666-88888-99999-77777-------
E--------11111-------44444-------66666-------99999-------

Chorus(3 times then let ring)
e----------------------------
B----------------------------
G-----4----4----44-----------
D--55-4-55-4-66-44-----------
A--55-2-55-2-66-22-----------
E--33---33---44--------------

Intro(1 time then fade out)
e-------------------------------
B-------------------------------
G-------------------------------
D-------------------------------
A--xxxxx--xxxxxxx-xxxxx--xxxxxxx
E--22223--2222345-22223--2222345
 
 Verse 2 (5 times then a guitar screech after the 2nd)
e--------------------------------------------------------
B--------------------------------------------------------
G--------------------------------------------------------
D--33333-------66666-------88888-------77777-------------
A--11111-33333-44444-66666-66666-88888-99999-77777-------
E--------11111-------44444-------66666-------99999-------

Chorus(3 times then let ring)
e----------------------------
B----------------------------
G-----4----4----44-----------
D--55-4-55-4-66-44-----------
A--55-2-55-2-66-22-----------
E--33---33---44--------------

end on

e----------------------
B----------------------
G----------------------
D----------------------
A--xxxxx--xxxxxxx-xxxxx
E--22223--2222345-22223 

then let it fade out



Tap to rate this tab
# A B C D E F G H I J K L M N O P Q R S T U V W X Y Z