Song name
# A B C D E F G H I J K L M N O P Q R S T U V W X Y Z

Misc Unsigned Bands - Diosfera Corporation - Eternit tab

intro:

Guitar 1:

e|-----------------------------------------------|
b|-------------slide-----------------------------|
g|---4-4-4-4-4->-7--4--4-4-4-4-4-----------------|
D|---4-4-4-4-4->-7--4--4-4-4-4-4--2-2-2----------|
A|---2-0-2-0-2->-5--2--2-0-2-0-2--2-2-2----------|
E|--------------------------------0-0-0----------|

e|---------------0---|
b|---------------0---|
g|---------------0---|
D|----2-2-2------0---|
A|----2-2-2------0---|
E|----0-0-0------0---|

Bridge:

Guitar1:
       fast played
e|---------------------------------|
b|---------------------------------|
g|---------------------------------|
D|---------------------------------|
A|---------------5-----------8-7-5-|
E|----7ph5h7p5h7--7-7p5h7p5h7------|

Guitar2:

  (x10)

e|-----------------|
b|-----------------|
g|--4--------------|
D|--4---2-2-2------|
A|--2---2-2-2------|
E|------0-0-0------|


verse:


both

e|---------------------------------|
b|---------------------------------|
g|---4-4----7-7----4-4-------------|
D|---4-4----7-7----4-4--2-2--------|
A|---2-2----5-5----2-2--2-2--------|
E|----------------------0-0--------|


bridge:

chorus:

both
    
   (x6)____x
e|---------------------------|
b|---------------------------|
g|---4-----4--7-7-7-7-7-7----|
D|---4--2--4--7-7-7-7-7-7----|
A|---2--2--0--5-5-5-5-5-5----|
E|------0--------------------|


bridge

verse 

bridge 

chorus

solo 

bridge




http://www.myspace.com/diosferacorp   
 
 




Tap to rate this tab
# A B C D E F G H I J K L M N O P Q R S T U V W X Y Z