Guitaretab - guitar tabs
Song name
# A B C D E F G H I J K L M N O P Q R S T U V W X Y Z

Misc Unsigned Bands - Underage - Burning Reason tab

ARTIST: UnderAge (composed by Sasha Mezhov)
SONG: Burning Reason
TABBED BY: Sasha Mezhov
TUNING: eBGDAE

RIFF A
e-------------------------------0-------0-------0-------0---------|
B---2--2----0--0----0--0----3--3----2--2----0--0----3--3----------|
G--2--2----2--2----1--1----2--2----2--2----1--1----2--2-----------|
D-2--2----2--2----2--2----0--0----2--2----2--2----0--0------------|
A-----------------------------------------------------------------|
E-----------------------------------------------------------------|

RIFF B
e-----------------------------------------------------------------|
B-2-2-220-0-0-000-0-0-000-3-3-33----------------------------------|
G-2-2-220-2-2-220-1-1-110-2-2-22----------------------------------|
D-2-2-220-2-2-220-2-2-220-0-0-00----------------------------------|
A-----------------------------------------------------------------|
E-----------------------------------------------------------------|
[ Tab from: http://www.guitaretab.com/m/misc-unsigned-bands/91368.html ]
RIFF C
e-----------------------------------------------------------------
B-2--2--2-2--2--200--0--000--0--0-2---22-2--2--200--0-000-0-0-
G-2--2--2-2--2--202--2--201--1--1-2---22-2--2--202--2-201-1-1-
D-4--4--4-0--0--002--2--202--2--2-4---44-0--0--002--2-202-2-2-
A-----------------------------------------------------------------
E-----------------------------------------------------------------

------------------------------------------------------------------|
2--2-2-2222-2220-0-0-0000~ let ring -----------------------------|
2--4-4-2222-2222-2-2-2222~ let ring -----------------------------|
4--4-4-0000-0002-2-2-2222~ let ring -----------------------------|
------------------------------------------------------------------|
------------------------------------------------------------------|

RIFF E
e-----------------------------------------------------------------|
B--2---0---0----0--2---0---0----0---------------------------------|
G-2-2-2-2-1-11--1-2-2-2-2-1-11--1---------------------------------|
D-------------2---------------2-----------------------------------|
A-----------------------------------------------------------------|
E-----------------------------------------------------------------|

LAST NOTE
e---|
B-2-|
G-2-|
D-2-|
A---|
E---|

Order:
RIFF A 3 times
RIFF B 5 times
RIFF C 1 time
RIFF A 2 times
RIFF B 5 times
RIFF E 2 times (very quiet on the second part of the bass solo)
RIFF C 2 times
LAST NOTE
Related for Underage - Burning Reason tab