Song name
# A B C D E F G H I J K L M N O P Q R S T U V W X Y Z

Misc Unsigned Bands - Oncoming - Well Meet Again tab

This was tabbed by the rhythm guitarist of Oncoming. I didn't write the music, I only
wrote the lyrics, but I can play the whole song, except for the solo. When I can play the 
solo, I'll post a new version.

H=Hammer on
P=Pull off
AUTHORíS NOTE: This song uses two guitars, but you really only need to play lead guitar. 
Thereís a solo, but thatís for lead guitar, and I donít know how to play the solo, so 
Iíll tab lead. Iíll tab rhythm guitar, but you really donít need to play rhythm, because 
Mike didnít in the acoustic performance.

INTRO (You should watch the acoustic video for strumming patterns.)
LEAD
-----------------------------------------------------|
-----------------------------------------------------|
-----------------------------------------------------|
----------------5-5-5-5-5-5-5-5-3-3-3-3-3-3-3-3------|
3-3-3-3-3-3-3-3-3-3-3-3-3-3-3-3-1-1-1-1-1-1-1-1------|
1-1-1-1-1-1-1-1--------------------------------------|
LEAD
-----------------------------------------------------|
-----------------------------------------------------|
-----------------------------------------------------|
5-5-5-5----------------------------------------------|
3-3-3-3----------------------------------------------|
-----------------------------------------------------|
(OPTIONAL) RHYTHM (You donít need to play this.) If it doesnít make sense, Iím sorry. This is my first tab.
-----------------------------------------------------|
-----------------------------------------------------|
-----------------------------------------------------|
-----------------------------------------------------|
3h5p3p-----------------------------------------------|
-----------------------------------------------------|
Repeat this until you get to ďWe may not be returningÖĒ
CHORUS
LEAD
-----------------------------------------------------|
-----------------------------------------------------|
-----------------------------------------------------|
7-7-7-7-7-7-7-7-5-5-5-5-5-5-5-5-3-3-3-3-3-3-3-3-3-3-3|
5-5-5-5-5-5-5-5-3-3-3-3-3-3-3-3-1-1-1-1-1-1-1-1-1-1-1|
-----------------------------------------------------|
LEAD
-----------------------------------------------------|
-----------------------------------------------------|
-----------------------------------------------------|
3-5óThen go back to the chorus-----------------------|
1-3--------------------------------------------------|
-----------------------------------------------------|
Thatís pretty much the whole song.
End on
-----|
-----|
-----|
3-5--|
1-3-3|
----1|

Tap to rate this tab
 
# A B C D E F G H I J K L M N O P Q R S T U V W X Y Z