Song name
# A B C D E F G H I J K L M N O P Q R S T U V W X Y Z

Misc Unsigned Bands - Cadbury - Heaven Tonight tab

D-----------------3-5--------
A---3----3---3-5-6----6-5-3--
E--3----3---3----------------

A----------3------6-5-3----3----3-
E--3-1------1-------------3----3--

E-----------------3---------------
B-----------------0---------------
G-----------------0---------------
D-----------------0---------------
A----------3------2--------3----3-
E---3-1-----1-----3-------3----3--

D-----------------3-5--------
A---3----3---3-5-6----6-5-3--
E--3----3---3----------------

A----------3------6-5-3----3----3-
E--3-1------1-------------3----3--

E-----------------3---------------
B-----------------0---------------
G-----------------0---------------
D-----------------0---------------
A----------3------2--------3----3-
E---3-1-----1-----3-------3----3--

G--------------------------------3----1----------1-3------
D------------------------2-3----5--------5-3----------5-3-
A--------------1----3-4-----------------------------------
E--3---1-3-4--3-------------------------------------------

A----------3------6-5-3----3----3-
E--3-1------1-------------3----3--

E-----------------3---------------
B-----------------0---------------
G-----------------0---------------
D-----------------0---------------
A----------3------2--------3----3-
E---3-1-----1-----3-------3----3--

E---3----
B---0----
G---0----
D---0----
A---2----
E---3----



D-----------------3-5--------
A---3----3---3-5-6----6-5-3--
E--3----3---3----------------

D-----------------3-5--------
A---3----3---3-5-6----6-5-3--      
E--3----3---3----------------
Tap to rate this tab
# A B C D E F G H I J K L M N O P Q R S T U V W X Y Z