Song name
# A B C D E F G H I J K L M N O P Q R S T U V W X Y Z

Misc Unsigned Bands - Rockabunny - Beads tab

E-----------------------------------------|
B-----------------------------------------|
G--------------------------5--------------|
D-----------------------------------------|
A-----------------------------------------|
E----1-----1-----1----0-0-0---------------|
     ............Descending

E----------------0----0---3----------------------------|
B----------------3----3---3----------------------------|
G---5-5-5-5-5----3----3---3-------7-----7-----7--------|
D---5-5-5-5-5----3----3---3----4-6---4-6---4-6---3-3-3-|
A-------------------------------5-----5-----5----------|
E------------------------------------------------------|
 ...............DES-CEND-ING!

E---------------------------------------------------|
B---1---2-2---1-------------------------------------|
G---2---1-1---2-------------------------------------|
D---2---1-1---2-------------------------------------|
A-----------------------------5-5-5-5-5-------------|
E-----------------1-1-1-1-1---------------1-1-1-1-1-|
Tap to rate this tab
# A B C D E F G H I J K L M N O P Q R S T U V W X Y Z