Song name
# A B C D E F G H I J K L M N O P Q R S T U V W X Y Z

Misc Unsigned Bands - Rockabunny - Deserted In Paradise tab

E---12-12---------12----------12------------3-|
B--------12-----15----------12--15----------0-|
G----------12--2----------12------13--------0-|
D------------13---------11----------13------0-|
A---------------------10--------------12----2-|
E-------------------10------------------10--3-|

E---15------12--------------11----------------|
B-----15--13--15----------12------------------|
G-------15------15------13-------10-10-10-10--|
D-----------------15--14----------------------|
A-------------------15------------------------|
E---------------------------------------------|

Verse:

E--------------------10-----------------10---12-----|
B----------------------10-------------11-----12-----|
G---15-15-15-15-15-------10---------10---------12---|
D---15-15-15-15-15---------10-----10-----------12---|
A----------------------------10-10---------------12-|
E------------------------------0-----------------12-|

Chorus:

E---3-3-3---3-3-3---7---5-----7-----5-----3--------------|
B---0-0-0---0-0-0-------5-----7-----5-----3--------------|
G---0-0-0---0-0-0------5-----7-----5-----3----3-3-5-6-10-|
D---0-0-0---0-0-0------5-----7-----5-----3----3-3-5-6-10-|
A---2-2-2---2-2-2-----5-----7-----5-----3----------------|
E---3-3-3---3-3-3---7-5-----7-----5-----3----------------|

Verse

Chorus

Chorus

Solo:

E------------------------------------|
B---5-4-----5-4---4-4---4-5-----5-4--|
G----5-5---4-5-------5-5---6-6-7-----|
D------------------------------------|
A------------------------------------|
E------------------------------------|

Verse

Chorus
Tap to rate this tab
# A B C D E F G H I J K L M N O P Q R S T U V W X Y Z