Song name
# A B C D E F G H I J K L M N O P Q R S T U V W X Y Z

Misc Unsigned Bands - Rockabunny - Orange Dissection tab

Introduction:

E---4-4-4-4---------------------4-4-4-4---------------4-4-4-4---|
B---0-0-0-0---------------------0-0-0-0---------------0-0-0-0---|
G---0-0-0-0---------------------0-0-0-0---------------0-0-0-0---|
D---0-0-0-0---------------------0-0-0-0---------------0-0-0-0---|
A---3-3-3-3---3-3-3-3-3-3-3-3---3-3-3-3---3-3-3-3-3---3-3-3-3---|
E---4-4-4-4---------------------4-4-4-4---------------4-4-4-4---|

E-------------------------------|
B-------------------------------|
G---7-6-5-4-3-2---5-5-4-3-2-1---|
D---7-6-5-4-3-2---5-5-4-3-2-1---|
A--------------------------0----|
E-------------------------------|

Pre-Verse:

E-------------|
B-------------|
G---3-3-3---3-|
D---3-3-3---3-|
A-------------|
E-------------|

Verse:

E-------------------------------|
B-------------------------------|
G---3-3---3-3--------5-4---5-5--|  X2
D------------4-4---4-4--------4-|
A-------------------------------|
E-------------------------------|

Chorus:

E---4-4-4-4---5-5-------4-4-4-4---|
B---0-0-0-0---0-0---7---0-0-0-0---|
G---0-0-0-0---0-0-------0-0-0-0---|  X2
D---0-0-0-0---0-0-------0-0-0-0---|
A---3-3-3-3---4-4---7---3-0-3-0---|
E---4-4-4-4---5-5-------4-4-4-4---|

Verse
Tap to rate this tab
# A B C D E F G H I J K L M N O P Q R S T U V W X Y Z