Song name
# A B C D E F G H I J K L M N O P Q R S T U V W X Y Z

Misc Unsigned Bands - Rockabunny - Revenge Is Served tab

Introduction:

E-------------------------------------------------------|
B-------------------------------------------------------|
G-----------------------------------------2-------------|   X5
D------------------------7-7-7-7----------2-------------|
A-------------5-5-5-5-5-------------------2-------------|
E--3-3-3-3-3------------------------------2-------------|

Verse:

E-----------------------7-7-7------------------1-1-------------|
B-------------------5-5---------------------2-2---2-2----------|
G------------------5---5-----------------3-3---------3-3-------|
D-------------2-2-2-------------------7-7---------------4-4----|
A--------4-4-4---------------------5-5---------------------5-5-|
E---3-3-3-----------------------4-4----------------------------|

Chorus:

E---------1---------2------------------------------|
B--------2-2-------3-2-----------------------------|
G-------3---3-----4---1---------------------7-7-7--|
D------4-----4---5-----0---------------5-5-5-------|
A---3-5-------5-6-------2---------3-3-3------------|
E----4---------6---------3---2-2-2-----------------|

Verse
Tap to rate this tab
 
# A B C D E F G H I J K L M N O P Q R S T U V W X Y Z