Guitaretab - guitar tabs
Song name
# A B C D E F G H I J K L M N O P Q R S T U V W X Y Z

Misc Unsigned Bands - Mollys Nightmare - New Song tab

New Song

Legend:
/ =slide up
\ =slide down
. =palm mute

Intro:

[1]
E|-------------------------------------------|
B|-------------------------------------------|
G|------9/10------10\9------12\10------9/10--| 4x
D|--0-0-x/-x--0-0--x\x--0-0--x\-x--0-0-x/-8--|
A|--0-0-7/-8--0-0--8\7--0-0-10\-8--0-0-7/-8--|
D|--0-0-------0-0-------0-0--------0-0-------|

Guitar two comes in on the second time above and plays the same thing.

Chorus:

[1]
E|-----------------------------------------|
B|------7------5------10------9------5/7---|
G|------x------x-------x------x------x/x---| 4x
D|--0-0-5--0-0-3--0-0--8--0-0-7--0-0-3/5---|
A|--0-0----0-0----0-0-----0-0----0-0-------|
D|--0-0----0-0----0-0-----0-0----0-0-------|

[2]
E|-------------------------------------------|
B|-------------------------------------------|
G|-------------------------------------------| 4x
D|--0-0-5---0-0-3---0-0-8---0-0-7---0-0-5/7--|
A|--0-0-5---0-0-3---0-0-8---0-0-7---0-0-5/7--|
D|--0-0-5---0-0-3---0-0-8---0-0-7---0-0-5/7--|


[1]
E|-------------------------------------------|
B|------10------9------12------10------9/10--|
G|-------x------x-------x-------x------x/-x--| 4x
D|--0-0--8--0-0-7--0-0-10--0-0--8--0-0-7/-8--| (on 4th time, donít do the slide)
A|--0-0-----0-0----0-0-----0-0-----0-0-------|
D|--0-0-----0-0----0-0-----0-0-----0-0-------|

[2]
E|-------------------------------------------------|
B|-------------------------------------------------|
G|-------------------------------------------------| 4x
D|--0-0-12---0-0-10---0-0-13---0-0-12---0-0-10/12--| (on 4th time, donít do
A|--0-0-12---0-0-10---0-0-13---0-0-12---0-0-10/12--| the slide)
D|--0-0-12---0-0-10---0-0-13---0-0-12---0-0-10/12--|

Verse 1:

[1]
E|--------------------------------------|
B|--------------------------------------|
G|----6-7-6----6-7-6----6-7-6----6---6--| 2x
D|--4--------4--------4--------4---4----|
A|--------------------------------------|
D|--------------------------------------|
[2]
E|--------------------------------------|
B|--------------------------------------|
G|--------------------------------------|
D|--------------------------------------|
A|----4-5-4----4-5-4----4-5-4----4---4--|
D|--4--------4--------4--------4---4----|


[1]
E|--------------------------------------|
B|--------------------------------------|
G|----8-9-8----8-9-8----8-9-8----8---8--| 2x
D|--6--------6--------6--------6---6----|
A|--------------------------------------|
D|--------------------------------------|

[2]
E|--------------------------------------|
B|--------------------------------------|
G|--------------------------------------| 2x
D|--------------------------------------|
A|----6-7-6----6-7-6----6-7-6----6---6--|
D|--6--------6--------6--------6---6----|

[ Tab from: http://www.guitaretab.com/m/misc-unsigned-bands/91390.html ]
[1]
E|---------------------------------------|
B|---------------------------------------|
G|----6-7-6----6-7-6----6-7-6-----6---6--| 2x
D|--4-x-x-x--4-x-x-x--4-x-x-x---4-x-4-x--|
A|--4-4-5-4--4-4-5-4--4-4-5-4---4-4-4-4--|
D|--4--------4--------4---------4---4----|

[2]
E|---------------------------------------|
B|---------------------------------------|
G|---------------------------------------| 2x
D|--4-4------4-4------4-4-------4-5-4-5--|
A|--4-4------4-4------4-4-------4-5-4-5--|
D|--4-4------4-4------4-4-------4-5-4-5--|


[1]
E|--------------------------------------|
B|--------------------------------------|
G|----8-9-8----8-9-8----8-9-8----8---8--| 2x
D|--6-x-x-x--6-x-x-x--6-x-x-x--6-x-6-x--|
A|--6-6-7-6--6-6-7-6--6-6-7-6--6-6-6-6--|
D|--6--------6--------6--------6---6----|

[2]
E|---------------------------------------|
B|---------------------------------------|
G|---------------------------------------| 2x
D|--6-6------6-6------6-6-------6-7-6-7--|
A|--6-6------6-6------6-6-------6-7-6-7--|
D|--6-6------6-6------6-6-------6-7-6-7--|


Repeat Chorus
Repeat Verse
Repeat Chorus
Interlude:

[1]
E|-----------------------------------|
B|-----------------------------------|
G|-------7-------5-------10-------9--| 4x
D|--0000-x--0000-x--0000--x--0000-x--|
A|--0000-5--0000-3--0000--8--0000-7--|
D|--0000----0000----0000-----0000----|
    ....    ....    ....    ....

[2]
E|----------------------------------|
B|----------------------------------|
G|----------------------------------| 4x
D|--0000-5--0000-3--0000-8--0000-7--|
A|--0000-5--0000-3--0000-8--0000-7--|
D|--0000-5--0000-3--0000-8--0000-7--|
    ....    ....    ....    ....


[1]
E|---------------------------------------|
B|---------------------------------------|
G|-------10-------9-------12-------10\9--| 4x
D|--0000--x--0000-x--0000--x--0000--x\x--|
A|--0000--8--0000-7--0000-10--0000--8\7--|
D|--0000-----0000----0000-----0000-------|
    ....    ....    ....    ....

[2]
E|-----------------------------------------|
B|-----------------------------------------|
G|-----------------------------------------| 4x
D|--0000-12--0000-10--0000-13--0000-12/10--|
A|--0000-12--0000-10--0000-13--0000-12/10--|
D|--0000-12--0000-10--0000-13--0000-12/10--|
    ....     ....     ....     ....

[1]
E|---------------------------------------------------------------|
B|---------------------------------------------------------------|
G|--10-10-10-10-10--9-9-9-9-9--12-12-12-12-12--10-10-10-10-10\9--| 4x
D|---x--x--x--x--x--x-x-x-x-x---x--x--x--x--x---x--x--x--x--x\x--|
A|---8--8--8--8--8--7-7-7-7-7--10-10-10-10-10---8--8--8--8--8\7--|
D|---------------------------------------------------------------|

[2]
E|---------------------------------------------------------------------|
B|---------------------------------------------------------------------|
G|---------------------------------------------------------------------| 4x
D|--12-12-12-12-12--10-10-10-10-10--13-13-13-13-13--12-12-12-12-12\10--|
A|--12-12-12-12-12--10-10-10-10-10--13-13-13-13-13--12-12-12-12-12\10--|
D|--12-12-12-12-12--10-10-10-10-10--13-13-13-13-13--12-12-12-12-12\10--|


Repeat Chorus


And thatís the end.
Related for Mollys Nightmare - New Song tab