Song name
# A B C D E F G H I J K L M N O P Q R S T U V W X Y Z

Misc Unsigned Bands - Extra Baggage - The Water tab

Help us improve GuitareTab! Take a short survey!
Verse

e|---------------------------------------------|
b|---------------------------------------------|
g|4-4-4-4--------------------------------------|
d|0-0-0-0--------------------------------------| x4
a|2-2-2-2--------------------------------------|
e|0-0-0-0--------------------------------------|

e|---------------------------------------------|
b|---------------------------------------------|
g|4-4-4-4--------------------------------------|
d|0-0-0-0--------------------------------------| x4
a|2-2-2-2--------------------------------------|
e|3-3-3-3--------------------------------------|

Chorus

e|3-3-3-3-3-3-3-3-3-3-3-3-3-3-3-3-3-3-3-3-3-3-3-3-3-3-3-3-3-3-3-3---|
b|3-3-3-3-3-3-3-3-3-3-3-3-3-3-3-3-3-3-3-3-3-3-3-3-3-3-3-3-3-3-3-3---|
g|0-0-0-0-0-0-0-0-0-0-0-0-0-0-0-0-2-2-2-2-2-2-2-2-0-0-0-0-0-0-0-0---| x4
d|0-0-0-0-0-0-0-0-0-0-0-0-0-0-0-0-2-2-2-2-2-2-2-2-0-0-0-0-0-0-0-0---|
a|2-2-2-2-2-2-2-2-3-3-3-3-3-3-3-3-0-0-0-0-0-0-0-0-2-2-2-2-2-2-2-2---|
e|0-0-0-0-0-0-0-0-0-0-0-0-0-0-0-0-0-0-0-0-0-0-0-0-3-3-3-3-3-3-3-3-0-|
Related for Extra Baggage - The Water tab