Song name
# A B C D E F G H I J K L M N O P Q R S T U V W X Y Z

Misc Unsigned Bands - Saints And Martyrs - Bringin Back The Memories tab

Band: Saints And Martyrs
Song: Bringin' Back the Memories
Composer: Jake Wende

Intro/Main Riff:
E|-----------------------------------------------------------------------|
B|-----------------------------------------------------------------------|
G|-----------------------------------------------------------------------|
D|------------5*^^-------------3--5--3-------------5*^^-------------3--5-|
A|-----------------------------3--5--3------------------------------3--5-|
D|-0-0-0-0-0-0-----0-0-0-0-0-0-3--5--3--0-0-0-0-0-0-----0-0-0-0-0-0-3--5-|

E|-----------------------------------------------------------------------|
B|-----------------------------------------------------------------------|
G|-----------------------------------------------------------------------|
D|------------5*^^-------------3--5--3-------------5*^^-------------3--5-|
A|-----------------------------3--5--3------------------------------3--5-|
D|-0-0-0-0-0-0-----0-0-0-0-0-0-3--5--3--0-0-0-0-0-0-----0-0-0-0-0-0-3--5-|

Verse: *2*PLAY 2 TIMES*2*
E|-------------------------------------------------------------------|
B|-------------------------------------------------------------------|
G|-------------------------------------------------------------------|
D|-------------------------------------------------------------------|
A|-3-0-0-0--3-0-0-0--3-0-0-0--3-0-0-0--3-0-0-0--3-0-0-0--------------|
D|-3-0-0-0--3-0-0-0--3-0-0-0--3-0-0-0--3-0-0-0--3-0-0-0--------------|

Chorus: *4*PLAY 4 TIMES*4*
E|--------------------------------------------|
B|--------------------------------------------|
G|--------------------------------------------|
D|-----------------4*^-----------------4*^----|
A|-3------------------------------------------|
D|-3-3-5-3-3-3-5-3-----3-3-5-3-3-3-5-3--------|

Solo 1:
E|---------------20p17--17-20p17--17-20p17--17-20p17--17-|
B|--------------------20--------20--------20--------20---|
G|-------------------------------------------------------|
D|-----------1214----------------------------------------|
A|------1214---------------------------------------------|
D|-1215--------------------------------------------------|
  T	P	T	P	T	P	T	P	T	P
E|161921-161921-161921-161921-141721-141721-141721-141721-121519-121519-|
B|----------------------------------------------------------------------|
G|----------------------------------------------------------------------|
D|----------------------------------------------------------------------|
A|----------------------------------------------------------------------|
D|----------------------------------------------------------------------|
  T	P	T	P     T      P      T
E|-121519-121519-121517-121517-121517-121517p15^---|
B|-------------------------------------------------|
G|-------------------------------------------------|
D|-------------------------------------------------|
A|-------------------------------------------------|
D|-------------------------------------------------|

E|15p12--12-------------------------------------------------|
B|-----15--15p12--14----------------------------------------|
G|--------------14--14p12--12-------------------------------|
D|-----------------------14----14p12--12--------------------|
A|----------------------------------14--14p12-10h12---------|
D|-------------------------------------------------14/\/\/\-|
(end solo)

Verse: *2*PLAY 2 TIMES*2*
E|-------------------------------------------------------------------|
B|-------------------------------------------------------------------|
G|-------------------------------------------------------------------|
D|-------------------------------------------------------------------|
A|-3-0-0-0--3-0-0-0--3-0-0-0--3-0-0-0--3-0-0-0--3-0-0-0--------------|
D|-3-0-0-0--3-0-0-0--3-0-0-0--3-0-0-0--3-0-0-0--3-0-0-0--------------|

Chorus: *4*PLAY 4 TIMES*4*
E|--------------------------------------------|
B|--------------------------------------------|
G|--------------------------------------------|
D|-----------------4*^-----------------4*^----|
A|-3------------------------------------------|
D|-3-3-5-3-3-3-5-3-----3-3-5-3-3-3-5-3--------|

Solo 2:
E|---------------------------------------------------------10h11h13-|
B|-------------------7h8h10------------------------10h11h13---------|
G|-------------7h8h10----------------------10h11h13-----------------|
D|-------7h8h10--------------------10h11h13-------------------------|
A|-7h8h10------------------10h11h13---------------------------------|
D|------------------------------------------------------------------|

E|13p10h15p10h13p10h15p10h13p10h15p10h13p10h15p10-15^-131110------------|
B|----------------------------------------------------------131110------|
G|----------------------------------------------------------------131110|
D|----------------------------------------------------------------------|
A|----------------------------------------------------------------------|
D|----------------------------------------------------------------------|

E|----------------------------------------------------------------------|
B|131110----------------------------------------------------------------|
G|------131110------131110----------------------------------------------|
D|------------131110------131110------131110----------------------------|
A|------------------------------131110------131110----------------------|
D|------------------------------------------------131110-X\\\-----------|
(end guitar solo 2)

*BASS SOLO*

Verse: *2*PLAY 2 TIMES*2*
E|-------------------------------------------------------------------|
B|-------------------------------------------------------------------|
G|-------------------------------------------------------------------|
D|-------------------------------------------------------------------|
A|-3-0-0-0--3-0-0-0--3-0-0-0--3-0-0-0--3-0-0-0--3-0-0-0--------------|
D|-3-0-0-0--3-0-0-0--3-0-0-0--3-0-0-0--3-0-0-0--3-0-0-0--------------|



Chorus: *4*PLAY 4 TIMES*4*
E|--------------------------------------------|
B|--------------------------------------------|
G|--------------------------------------------|
D|-----------------4*^-----------------4*^----|
A|-3------------------------------------------|
D|-3-3-5-3-3-3-5-3-----3-3-5-3-3-3-5-3--------|

Solo 3:
E|-------------------------------------------------------1720^20^20^|
B|---------------------------------------------------1720-----------|
G|-----------------------------------------------1719---------------|
D|--------1719^--------1719^-1917------------1719-------------------|
A|----1719---------1719----------1917----1719-----------------------|
D|1720---------1720------------------2017---------------------------|

E|------------------------------171820-21^/\/\/\-20p17--17-19p16--16|
B|------------------------171820----------------------20--------19--|
G|------------------171820------------------------------------------|
D|------------171820------------------------------------------------|
A|------171820------------------------------------------------------|
D|171820------------------------------------------------------------|

E|18p15--15-17p14--14-16p13--13-15p12--12-------------------------------|
B|-----18--------17--------16--------15--15p12h17p12h15p12h17p12-17^-17^|
G|----------------------------------------------------------------------|
D|----------------------------------------------------------------------|
A|----------------------------------------------------------------------|
D|----------------------------------------------------------------------|

E|--------------------------------------1215-15^-1515151312-1515151312-|
B|----------------------------------1215-------------------------------|
G|------------------------------1214-----------------------------------|
D|111214----1214-14^--------1214---------------------------------------|
A|------1214------------1214-------------------------------------------|
D|------------------1215-----------------------------------------------|

E|1515151312-1515151312-1515151312-15^-0070080090010-0011001200130014|
B|-------------------------------------------------------------------|
G|-------------------------------------------------------------------|
D|-------------------------------------------------------------------|
A|-------------------------------------------------------------------|
D|-------------------------------------------------------------------|

E|001500160017001800190020-0021-21^---12---12---13---13---14---14---15|
B|---------------------------------15^--15^--16^--16^--17^--17^--18^--|
G|--------------------------------------------------------------------|
D|--------------------------------------------------------------------|
A|--------------------------------------------------------------------|
D|--------------------------------------------------------------------|

E|---15---16---16---17---17---18---18-21^/\/\/\-10p8p7------------------|
B|18^--19^--19^--20^--20^--21^--21^-------------------10p8p7------------|
G|----------------------------------------------------------10p8p7------|
D|----------------------------------------------------------------10p8p7|
A|----------------------------------------------------------------------|
D|----------------------------------------------------------------------|

E|-----------------12-----12-----12-----12-10-7-----------------------|
B|---------------12-----12-----12-----12-------10-7----------------710|
G|------------14^----14^----14^----14^-------------97------------79---|
D|---------------------------------------------------97--------79-----|
A|10p8p7-----------------------------------------------97----79-------|
D|------10p8p7-------------------------------------------12-9---------|

E|-------------------------------------------03-3-0---------------|
B|10-7-------------------------------------03------3-0------------|
G|----97----------------0-2*^0-2*^0-2*^0-2^-----------2-0---------|
D|------97------------02---------------------------------2-0------|
A|--------97\2-2p0--02--------------------------------------2-0---|
D|----------------25-------------------------------------------5-2|

E|---------------------|
B|---------------------|
G|---------------------|
D|------0-2-2-0--------|
A|---0-2-------2-0-----|
D|2-5-------------5-2~~|

Solo 4:
E|------------------------------------------------------------1215-12-|
B|--------------------------------------------------------1215-----15^|
G|---------1214-1412--121412--121412--121412--121412--1214------------|
D|-----1214---------14------14------14------14------14----------------|
A|-1214---------------------------------------------------------------|
D|--------------------------------------------------------------------|

E|12-12-12-15p13p12-15p13p12-15p13p12-15p13p12-17p15p14-17p15p14|
B|15^15^15^-----------------------------------------------------|
G|--------------------------------------------------------------|
D|--------------------------------------------------------------|
A|--------------------------------------------------------------|
D|--------------------------------------------------------------|

E|17p15p14-17p15p14-19p17p15-19p17p15-19p17p15-19p17p15-21p19p17|
B|--------------------------------------------------------------|
G|--------------------------------------------------------------|
D|--------------------------------------------------------------|
A|--------------------------------------------------------------|
D|--------------------------------------------------------------|

E|21p19p17-21p19p17-21p19p17-17h19h21-17h19h21-17h19h21-17h19h21|
B|--------------------------------------------------------------|
G|--------------------------------------------------------------|
D|--------------------------------------------------------------|
A|--------------------------------------------------------------|
D|--------------------------------------------------------------|

E|15h17h19-15h17h19-15h17h19-15h17h19-14h15h17-14h15h17-14h15h17|
B|--------------------------------------------------------------|
G|--------------------------------------------------------------|
D|--------------------------------------------------------------|
A|--------------------------------------------------------------|
D|--------------------------------------------------------------|

E|14h15h17-12h13h15-12h13h15-12h13h15-12h13h15-15p13p12-15p13p12--------|
B|--------------------------------------------------------------15p13p12|
G|----------------------------------------------------------------------|
D|----------------------------------------------------------------------|
A|----------------------------------------------------------------------|
D|----------------------------------------------------------------------|

E|-------------------------------------------------------------------|
B|15p13p12---------------------------------------------------17h18h20|
G|--------15p13p12-15p13p12--------------------------17h18h20--------|
D|-------------------------15p13p12-15p13p12-17h18h20----------------|
A|-------------------------------------------------------------------|
D|-------------------------------------------------------------------|

E|17h18h20-20^20^-15p13p12----------------------------------------|
B|------------------------15p13p12----------------15p13p12--------|
G|--------------------------------15p13p12----------------15p13p12|
D|----------------------------------------15p13p12----------------|
A|----------------------------------------------------------------|
D|----------------------------------------------------------------|

E|-------------------------------------------------12h13h15\3-0-0-3-0-0|
B|-----------------------------------------12h13h15------------3-----3-|
G|---------------------------------12h13h15----------------------------|
D|15p13p12-----------------12h13h15------------------------------------|
A|--------15p13p12-12h13h15--------------------------------------------|
D|---------------------------------------------------------------------|

E|3-0-0-----------------|
B|---3-3-0-0------------|
G|--------2-2-0-0-------|
D|-------------2-2-0-0-2|
A|------------------2---|
D|----------------------|


Chorus: *4*PLAY 4 TIMES*4*
E|--------------------------------------------|
B|--------------------------------------------|
G|--------------------------------------------|
D|-----------------4*^-----------------4*^----|
A|-3------------------------------------------|
D|-3-3-5-3-3-3-5-3-----3-3-5-3-3-3-5-3--------|


Outro (Main Riff):
E|--------------------------------------------------------------------|
B|--------------------------------------------------------------------|
G|--------------------------------------------------------------------|
D|------------5*^^-------------3--5-------------5*^^-------------3--5-|
A|-----------------------------3--5------------------------------3--5-|
D|-0-0-0-0-0-0-----0-0-0-0-0-0-3--5--0-0-0-0-0-0-----0-0-0-0-0-0-3--5-|

E|--------------------------------------------------------------------|
B|--------------------------------------------------------------------|
G|--------------------------------------------------------------------|
D|------------5*^^-------------3--5-------------5*^^-------------3--5\|
A|-----------------------------3--5------------------------------3--5\|
D|-0-0-0-0-0-0-----0-0-0-0-0-0-3--5--0-0-0-0-0-0-----0-0-0-0-0-0-3--5\|

h: hammer on
p: pull-off
*: pinch harmonic
^: band up
\:slide down
~: hold note
X\: pick slide down
T	P: tapping
/\: use whammy

Order of Occurrence:
Main Riff 4x
Verse
Chorus
Solo 1 (w/ main riff in background)
Verse
Chorus
Solo 2 (w/ main riff in background)
Bass solo
Verse
Chorus
Solo 3 (w/ main riff in background)
Solo 4 (w/ main riff in background)
Chorus
Outro
Tap to rate this tab
# A B C D E F G H I J K L M N O P Q R S T U V W X Y Z