Song name
# A B C D E F G H I J K L M N O P Q R S T U V W X Y Z

Misc Unsigned Bands - Bessa - Unik tab

Artist : Bessa
Kenga  : Unik
Tabb   : Ilir Livoreka
Contact: iLoo.st@hotmail.com


 Cm7         C#m      A          A       E          E       H (B)    H (B)
e-4----------4-------0----------0-------0------------------2--------------||
B-5--------5---5-----2--------2---2-----0----------0-------4--------4-----||
G-4------6-------6---2------2-------2---1--------1---1-----4------4---4---||
D-6----6-------------2----2-------------2------2-------2---4----4-------4-||
A-4--4---------------0--0---------------2----2-------------2--2-----------||
E---------------------------------------0--0------------------------------||

-weq akordi i par osht septakord i vogel mol, manej kthehet n kuintakord!
ky osht ni improvizim nese e lun weq me kitar, qi e shtini edhe pianon.. ather kitara man weq akord!

ref: 
    e-----------------||
    B-----------------||
    G-----------------||
    D--6~--2~------4~-||
    A--4~--0~--2~--2~-||
    E----------0~-----||

nihen do melodika t'vogla naj kush munet mi thon edhe solo .. po nuk jon solo:
ato i lun n baz t akordit, me disturzi t'leht n C#m ne notat cis, e edhe gis naj kun?
kshtu e luni edhe n akordet tjera.

Per me ju nimu pak me akrde:

C#m - cis mol : notat : C# - E  - G# | cis - e   - gis
A   - A dur   : notat : A  - C# - E  | a   - cis - e
E   - E dur   : notat : E  - G# - H  | e   - gis - h
H   - H dur   : notat : H  - D# - F# | h   - dis - fis
H = B .. H ose B jon njejt n'kitar, kur dojn me shenu noten H t zbritun n muzik klasike shenohet me B.
po ktu at not e shenojn kshtu  Bb.. edhe mol ose dur! Bb= A#

Enjoy!
Tap to rate this tab
# A B C D E F G H I J K L M N O P Q R S T U V W X Y Z