Song name
# A B C D E F G H I J K L M N O P Q R S T U V W X Y Z

Misc Unsigned Bands - Kool Shades - Danger Sign tab

Song: Danger Sign
Band: Kool Shades
Tabbed By: Dylan Browne (TheReverend724)

Intro
E-5--5---------4--4-----4----4------3----------------1------|
B-6----6-------3-----6-----3-----3-----3------3--3-----3----|
G-7-------7----4-----------------3--------3---3----3-----3--|
D-7------------0-----------------5------------3-------------|
A-5------------------------------5------------1-------------|
E-5-------------------------------------------3-------------|

E----6---9--9—-6h8p6-----------------------------|
B-8--8---6--6--6-----6h8p6--6--6-6----5----------|
G-8--8---6--6--6-----6------7--7-7----6----------|
D-8--8---------------8------8--8-8-0--7-----7----|
A---------------------------8--8-8-0--7--0-----7-|
E------------------------------------------------|

E-5--5---------4--4-----4----4------3----------------1------|
B-6-----6------3-----6-----3-----3-----3------3--3-----3----|
G-7--------7---4-----------------3--------3---3----3-----3--|
D-7------------0-----------------5------------3-------------|
A-5------------------------------5------------1-------------|
E-5-------------------------------------------3-------------|

E----6----6----6------6---------------5--------|
B-8--8------9-----6/8----6--6-6----5-----5-----|
G-8--8-------------------7--7-7----6--------6--|
D-8--8-------------------8--8-8-0--7-----------|
A------------------------8--8-8-0--7-----------|
E----------------------------------------------|


Verse
“Im so stoned…”
E-5--5---------4--4-----4----4------3----------------1------|
B-6----6-------3-----6-----3-----3-----3------3--3-----3----|
G-7-------7----4-----------------3--------3---3----3-----3--|
D-7------------0-----------------5------------3-------------|
A-5------------------------------5------------1-------------|
E-5-------------------------------------------3-------------|

“I just hope…”
E----6---9--9—-6h8p6-----------------------------|
B-8--8---6--6--6-----6h8p6--6--6-6----5----------|
G-8--8---6--6--6-----6------7--7-7----6----------|
D-8--8---------------8------8--8-8-0--7-----7----|
A---------------------------8--8-8-0--7--0-----7-|
E------------------------------------------------|

“If I knew…”
E-5--5---------4--------------------3-----------------------|
B-6----6-------3-----------------3-----3------3-------3/----|
G-7-------7----4-----------------3--------3---3-------3/----|
D-7------------0-----------------5------------3-------3/----|
A-5------------------------------5------------1-------------|
E-5-------------------------------------------3-------------|

“Blue…”
E----6---9--9—-6h8p6---------------------5-------|
B-8--8---6--6--6-----6h8p6--6--6-6--5------6-----|
G-8--8---6--6--6-----6------7--7-7--6-------7----|
D-8--8---------------8------8--8-8--7-7----------|
A---------------------------8--8-8--7-0----------|
E------------------------------------------------|

“Like the danger sign…”
E-5--5---------4--4-----4----4------3----------------1------|
B-6----6-------3-----6-----3-----3-----3------3--3-----3----|
G-7-------7----4-----------------3--------3---3----3-----3--|
D-7------------0-----------------5------------3-------------|
A-5------------------------------5------------1-------------|
E-5-------------------------------------------3-------------|

“All that…”
E----6---9--9—-6h8p6---------------------------|
B-8--8---6--6--6-----6h8p6--6--6-6-6--6--6-6-6-|
G-8--8---6--6--6-----6------7--7-7-7--7--7-7-7-|
D-8--8---------------8------8--8-8-8--8--8-8-8-|
A---------------------------8--8-8-8--8--8-8-8-|
E----------------------------------------------|

Bridge
“There’s a fire…”
E--1-1--1-1--1-1--1-1---0-0--0-0--0-0--0-0-0----|
B--1-1--1-1--1-1--1-1---1-1--1-1--1-1--1-1-1----|
G--2-2--2-2--2-2--2-2---0-0--0-0--0-0--0-0-0----|
D--3-3--3-3--3-3--3-3---2-2--2-2--2-2--2-2-2----|
A--3-3--3-3--3-3--3-3---3-3--3-3--3-3--3-3-3----|
E--1-1--1-1--1-1--1-1---0-0--0-0--0-0--0-0-0----|

“Desire…”
E---3-----------3--------1----|
B---0-------------0------0----|
G---0---------------0----0----|
D---0-------------------------|
A—--2-------------------------|
E---3-------------------------|


Chorus
“Everything you feel…”
E---6-------1-------0------1-----|
B---6-------1-------1------3-----|
G---7-------2-------0------2-----|
D---8-------3-------2------0-----|
A—--8-------3-------3------0-----|
E---6-------1-------0------------|

“I don’t want…”
E---6-------1-------0-----------|
B---6-------1-------1-----------|
G---7-------2-------0-----------|
D---8-------3-------2-----------|
A—--8-------3-------3-----------|
E---6-------1-------0-----------|

“We sing along…”
E---6-------1-------0------1-----|
B---6-------1-------1------3-----|
G---7-------2-------0------2-----|
D---8-------3-------2------0-----|
A—--8-------3-------3------0-----|
E---6-------1-------0------------|

“Im so tired…”
E---6-------1-------0-----------|
B---6-------1-------1-----------|
G---7-------2-------0---ring----|
D---8-------3-------2-----------|
A—--8-------3-------3-----------|
E---6-------1-------0-----------|

Repeat Verse, Bridge and Chorus

Interlude (upstroke)
E----5---5---4---4---3---3---5---5---|
B----6---6---3---3---3---3---6---6---|
G----7---7---4---4---3---3---7---7---|
D----7---7---0---0---5---5---7---7---|
A—-----------------------------------|
E------------------------------------|

Dub Rap (same, just double time)
E----5---5---4---4---3---3---5---5---|
B----6---6---3---3---3---3---6---6---|
G----7---7---4---4---3---3---7---7---|
D----7---7---0---0---5---5---7---7---|
A—-----------------------------------|
E------------------------------------|

“Hahahahaha” (back to original tempo)
E----5---5---4---4---3---3---5---5---|
B----6---6---3---3---3---3---6---6---|
G----7---7---4---4---3---3---7---7---|
D----7---7---0---0---5---5---7---7---|
A—-----------------------------------|
E------------------------------------|

E----5---5---4---4---3---3---5---------|
B----6---6---3---3---3---3---5---------|
G----7---7---4---4---3---3---6---------|
D----7---7---0---0---5---5---7---------|
A—---------------------------7---------|
E--------------------------------------|

Repeat Chorus

Repeat Intro

| /  slide up
| \  slide down
| h  hammer-on
| p  pull-off
| ~  vibrato
| +  harmonic
| x  Mute note

Well, that’s it, hope you like it ☺

Tap to rate this tab
# A B C D E F G H I J K L M N O P Q R S T U V W X Y Z