Song name
# A B C D E F G H I J K L M N O P Q R S T U V W X Y Z

Misc Unsigned Bands - Sharkpunch - Dinocore tab

If anyone is into underground "Dinosaur Brocore" you'll be glad this is here.  You 
listen to the song before giving it a try especially during the bridge. Well here you go!

Tuning: Drop D
Effects: Overdrive
Key:
P = Palm Mute
~ = Let Ring
x = Muted Note

Intro Riff:
"It's all about Dinosaur Brocore."
e|-------------------------------------------|
B|-------------------------------------------|
G|-------------------------------------------|
D|-0--0--3~----0--0--3~----0--2--0--2--0-----|
A|-0--0--3~----0--0--3~----0--2--0--2--0-----|
D|-0--0--3~----0--0--3~----0--2--0--2--0-----|

Main Riff:
"I'd Better see some 2-stepping on this one!"
e|-------------------------------------------|
B|-------------------------------------------|
G|-7-7-7-5-7-----------------3-3-3-3---------|
D|-7-7-7-5-7-0-0-0-0-3-3-3-3-3-3-3-3---------|
A|-5-5-5-3-7-0-0-0-0-3-3-3-3-1-1-1-1---------|
D|-----------0-0-0-0-3-3-3-3-----------------|
(the counts on this may not be perfect but the tabs are good.)

Bridge 1:
"This is not the breakdown!"
e|-----------------------------------------|
B|-----------------------------------------|
G|-----------------------------------------|
D|-0--x----1--x----0--x----1--x----1---0---|
A|-0--x----1--x----0--x----1--x----1---0---|
D|-0--x----1--x----0--x----1--x----1---0---|
(Listen to the song first.)

Play "Main Riff"
"Where do we go from here?"

Breakdown 1:
"Ok, its hardcore dancing time!"
e|-------------------------------------------|
B|-------------------------------------------|
G|-------------------------------------------|
D|--0--0-0-000-0-0----0-0--0-0-000-0-0-------|
A|--0--0-0-000-0-0----0-0--0-0-000-0-0-------|
D|--0--0-0-000-0-0----0-0--0-0-000-0-0-------|
   P-----------------------------------------|

Breakdown(con't):
e|--------------------------------------------|
B|--------------------------------------------|
G|--------------------------------------------|
D|-000000000000-------------------------------|
A|-000000000000-------------------------------|
D|-000000000000-------------------------------|
  P-------------------------------------------|
(Here in the background he strums continuously. So just listen for the strumming.)

Breakdown(con't 2):
Repeat x4
e|--------------------------------------------|
B|--------------------------------------------|
G|--------------------------------------------|
D|-0-0-00-000-0-0----0-0-00-000-0-0-----------|
A|-0-0-00-000-0-0----0-0-00-000-0-0-----------|
D|-0-0-00-000-0-0----0-0-00-000-0-0-----------|
  P-------------------------------------------|
(This is really familiar to Breakdown 1 but if you listen it's different.)

Play "Main Riff"
"Where do we go from here?"

Play "Intro Riff"
"TMNX"

Final Notes:
e|---------------------------------|
B|---------------------------------|
G|---------------------------------|
D|-0---0---------------------------|
A|-0---0---------------------------|
D|-0---0---------------------------|

Well there you go I hope you enjoy it its a fun song to play it's great if you just picked up a guitar.
Tap to rate this tab
 
# A B C D E F G H I J K L M N O P Q R S T U V W X Y Z