Song name
# A B C D E F G H I J K L M N O P Q R S T U V W X Y Z

Misc Unsigned Bands - This Darkened Age - Fall Of A Plauge tab

THIS BAND IS AMAZING AND THEY SHOULD GET BACK TOGETHER ASAP!

Intro (extremly fast pace, played twice)

B |-----------------------------------------------------|
G#|-----------------------------------------------------|
D |-----------------------------------------------------|
A |----888---777----------------------------------------|
E |-555---444---555---777------444333---8887778/1010\8~-|
A |----------------888---888111------555----------------|


Sams Solo (got as close as i could)


B |------------------------------------------------------------|
G#|------------------------------------------------------------|
D |------------------------------------------------------------|
A |--------------\19~-17~-17h19h20p19~17h19p17/15~14h15p14/12~-|
E |-\17~-\19-\20-----------------------------------------------|
A |------------------------------------------------------------|


B |--------------------------------------------------------------|
G#|--------------------------------------------------------------|
D |-------------------121412------------------------141514-------|
A |-------------121415------151412------------141517------171514-|
E |-------121415------------------151412141517-------------------|
A |-121415-------------------------------------------------------|


B |--------------------------------------------------------------|
G#|--------------------------------------------------------------|
D |-------------------151715------------------------171917-------|
A |-------------151719------191715------------171920------201917-|
E |-171514151719------------------191715171920-------------------|
A |--------------------------------------------------------------|


B |-----------------------------12h17p12-----------------15h19p15-|
G#|---------------------------15--------15-------------17---------|
D |-------------------------14------------14---------16-----------|
A |-----------------------15----------------15-----17-------------|
E |-2019171917151715141517--------------------17/19---------------|
A |---------------------------------------------------------------|


B |------------------------------------------------|
G#|-17---------------------------------------------|
D |---16-------------------------------------------|
A |-----17------------15151517171719191920202019~--|
E |-------191919171717-----------------------------|
A |------------------------------------------------|

Im gonna work on getting some more up soon check them out on myspace


www.myspace.com/thisdarkenedage
Tap to rate this tab
 
# A B C D E F G H I J K L M N O P Q R S T U V W X Y Z