Song name
# A B C D E F G H I J K L M N O P Q R S T U V W X Y Z

Misc Unsigned Bands - Red Night - Home Again tab

Help us improve GuitareTab! Take a short survey!
INTRO:
E/----------------10-10-10-10-10-----------------------------------------\
B/-------------------------------10-10-10-10-10--------------------------\
G/-12-12-12-12-12-------------------------------12-12-12-12-12------------\
D/------------------------------------------------------------------------\
A/------------------------------------------------------------------------\
E/------------------------------------------------------------------------\

E/----------------10-10-10-10-10------------------------------------------\
B/-------------------------------12-12-12-12-12-10-10-10-10-10------------\
G/-12-12-12-12-12---------------------------------------------------------\
D/------------------------------------------------------------------------\
A/------------------------------------------------------------------------\
E/------------------------------------------------------------------------\

E/----------------10-10-10-10-10------------------------------------------\
B/-------------------------------10-10-10-10-10---------------------------\
G/-12-12-12-12-12-------------------------------12-12-12-12-12------------\
D/------------------------------------------------------------------------\
A/-------------------------------------------------------------------------\
E/-------------------------------------------------------------------------\

E/----------------10-10-10-10-10-------------------------------------------\
B/-------------------------------12-10-12-10-12----------------------------\
G/-12-12-12-12-12-------------------------------12-------------------------\
D/-------------------------------------------------------------------------\
A/-------------------------------------------------------------------------\
E/-------------------------------------------------------------------------\

SECOND INTRO/CHORUS:
E/-------------------------------------------------------------------------\
B/-------------------------------------------------------------------------\
G/-----------------------------444444--------222222------------------------\
D/-999999-444444-777777-222222-444444-444444-222222------------------------\
A/-999999-444444-777777-222222-222222-444444-000000------------------------\
E/-777777-222222-555555-000000--------222222-------------------------------\

VERSE (PM):
E/-------------------------------------------------------------------------\
B/-------------------------------------------------------------------------\
G/-6-----------------------------------------------------------------------\
D/-6-x-77-x-2-x-2-x-44-----------------------------------------------------\
A/-4-x-77-x-2-x-2-x-44-----------------------------------------------------\
E/---x-55-x-0-x-0-x-22-----------------------------------------------------\
Related for Red Night - Home Again tab