Song name
# A B C D E F G H I J K L M N O P Q R S T U V W X Y Z

Misc Unsigned Bands - Dog Poop - Joe tab

Joe


by


Dog
poop


Intro
|---------------------------|
|---------------------------|
|---------------------------|
|---------------------------|
|-0--0--2----------0--------|
|----------2--2--1---0--3---|

|-------------------------------|
|-------------------------------|
|-------------------------------|
|-------------------------------|
|-0--0--2--2----------0--0------|
|-------------2--2--1------0--3-|

Enjoy
Tap to rate this tab
 
# A B C D E F G H I J K L M N O P Q R S T U V W X Y Z