Song name
# A B C D E F G H I J K L M N O P Q R S T U V W X Y Z

Misc Unsigned Bands - Fallout Shelter - Tonight Too Lost tab

this is a great song from Fallout Shelter

.  palmmute
/  slide
h  hammer on
b  bend
m  mute note
p  pull off


INTRO:  fast aggresive strumming
E------------------------|
B------------------------|
G--66666------66666------|
D--77777------77777------|    x3
A--55555------55555------|
E--mmmmm--6b--mmmmm--4b--|

VERSE:
E--------------------------------------------------------------|
B--------------------------------------------------------------|
G--------------------------------------------------------------|
D--5555-5-5555-7777-7-7777-5555-5-5555-13131313-13-13131313----|   x8
A--3333-3-3333-5555-5-5555-3333-3-3333-11111111-11-11111111----|
E--0000-0-0000-0000-0-0000-0000-0-0000-------------------------|
   .... . .... .... . .... .... . ....  . . . .  .  . . . .

PRECHORUS:
E------------------------------------------------------|
B------------------------------------------------------|
G------------------------------------------------------|
D------------------------------------------------------|
A--2222--2222--5555------------------------------------|
E--0000--0000--3333------------------------------------|

CHORUS:
E------------------------------------------------------------|
B------------------------------------------------------------|
G------------------------------------------------------------|
D--17-17-17----13-13-13-13-13--------------------------------|   x8
A--15-15-15----12-12-12-12-12--------------------------------|
E--------------11-11-11-11-11--------------------------------|

VERSE:
E--------------------------------------------------------------|
B--------------------------------------------------------------|
G--------------------------------------------------------------|
D--5555-5-5555-7777-7-7777-5555-5-5555-13131313-13-13131313----|   x8
A--3333-3-3333-5555-5-5555-3333-3-3333-11111111-11-11111111----|
E--0000-0-0000-0000-0-0000-0000-0-0000-------------------------|
   .... . .... .... . .... .... . ....  . . . .  .  . . . .

CHORUS:
E------------------------------------------------------------|
B------------------------------------------------------------|
G------------------------------------------------------------|
D--17-17-17----13-13-13-13-13--------------------------------|   x8
A--15-15-15----12-12-12-12-12--------------------------------|
E--------------11-11-11-11-11--------------------------------|

BRIDGE:
E------------------------------------------------------4-|
B----------------------------------4-------------------4-|
G-----------------h3p-h3p-h3p-h3p--4--h3p-h3p-h3p-h3p----|
D--//////////--------------------------------------------|
A--//////////--------------------------------------------|
E--//////////--------------------------------------------|


E------------------------------------------------------4--------|
B----------------------------------4-------------------4--------|
G-----------------h3p-h3p-h3p-h3p--4--h3p-h3p-h3p-h3p---    x 3-|
D---------------------------------------------------------------|
A---------------------------------------------------------------|
E---------------------------------------------------------------|


E----------------|
B--------1111----|
G--2222--2222----|   x4
D--2222--2222----|
A----------------|
E----------------|

CHORUS:
E------------------------------------------------------------|
B------------------------------------------------------------|
G------------------------------------------------------------|
D--17-17-17----13-13-13-13-13--------------------------------|   x8
A--15-15-15----12-12-12-12-12--------------------------------|
E--------------11-11-11-11-11--------------------------------|

THERE IT IS...ENJOY!
Tap to rate this tab
# A B C D E F G H I J K L M N O P Q R S T U V W X Y Z