Song name
# A B C D E F G H I J K L M N O P Q R S T U V W X Y Z

Misc Unsigned Bands - Tela Flora - Fashionismymiddlename tab

hello every body this is EJ VAZQUEZ from EK in NJ
Impretty sure that for the most part this tab is pretty much correct. BUT
if u see anything wrong with this tab be sure to tell me about it
AIM-DakotaDaleSaves
Song-FashionIsMyMiddleName
Band-Tela Flora
Tuning-Standard
  Intro

---5------|
---0------|
---2------|
---0------|
----------|
----------|

Verse (x2)
--3-3-3-3-3-3---3-3-3-3-3-3--3-3-3-3-3-3--3-3-3--3-3-3-3-----------------|
--1-1-1-1-1-1---1-1-1-1-1-1--1-1-1-1-1-1--1-1-1--1-1-1-1-----------------|
--0-0-0-0-0-0---0-0-0-0-0-0--0-0-0-0-0-0--0-0-0--0-0-0-0-----------------|
--2-2-2-2-2-2---0-0-0-0-0-0--0-0-0-0-0-0--0-0-0--0-0-0-0-----------------|
--3-3-3-3-3-3---2-2-2-2-2-2--2-2-2-2-2-2--0-0-0--0-0-0-0-----------------|
-----------------------------0-0-0-0-0-0--2-2-2--3-3-3-3-----------------|

Chorus (x2)
-3-3-3-3-3-3-3-3-3-3-3-3-3-3-3-3--3-3-3-3-3-3-3-3--3-3-3-3--3-3-3-3------|
-1-1-1-1-1-1-1-1-1-1-1-1-1-1-1-1--1-1-1-1-1-1-1-1--1-1-1-1--1-1-1-1------|
-0-0-0-0-0-0-0-0-0-0-0-0-0-0-0-0--0-0-0-0-0-0-0-0--0-0-0-0--0-0-0-0------|
-2-2-2-2-2-2-2-2-2-2-2-2-2-2-2-2--0-0-0-0-0-0-0-0--0-0-0-0--0-0-0-0------|
-3-3-3-3-3-3-3-3-3-3-3-3-3-3-3-3--2-2-2-2-2-2-2-2--0-0-0-0--0-0-0-0------|
----------------------------------0-0-0-0-0-0-0-0--2-2-2-2--3-3-3-3------|

End Second Time
----1-----|
----0-----|
----2-----|
----3-----|
----------|

Verse2(x2)
--3-3-3-3-3-3---3-3-3-3-3-3--3-3-3-3-3-3--3-3-3--3-3-3-3-----------------|
--1-1-1-1-1-1---1-1-1-1-1-1--1-1-1-1-1-1--1-1-1--1-1-1-1-----------------|
--0-0-0-0-0-0---0-0-0-0-0-0--0-0-0-0-0-0--0-0-0--0-0-0-0-----------------|
--2-2-2-2-2-2---0-0-0-0-0-0--0-0-0-0-0-0--0-0-0--0-0-0-0-----------------|
--3-3-3-3-3-3---2-2-2-2-2-2--2-2-2-2-2-2--0-0-0--0-0-0-0-----------------|
-----------------------------0-0-0-0-0-0--2-2-2--3-3-3-3-----------------|

Chorus (x2)
-3-3-3-3-3-3-3-3-3-3-3-3-3-3-3-3--3-3-3-3-3-3-3-3--3-3-3-3--3-3-3-3------|
-1-1-1-1-1-1-1-1-1-1-1-1-1-1-1-1--1-1-1-1-1-1-1-1--1-1-1-1--1-1-1-1------|
-0-0-0-0-0-0-0-0-0-0-0-0-0-0-0-0--0-0-0-0-0-0-0-0--0-0-0-0--0-0-0-0------|
-2-2-2-2-2-2-2-2-2-2-2-2-2-2-2-2--0-0-0-0-0-0-0-0--0-0-0-0--0-0-0-0------|
-3-3-3-3-3-3-3-3-3-3-3-3-3-3-3-3--2-2-2-2-2-2-2-2--0-0-0-0--0-0-0-0------|
----------------------------------0-0-0-0-0-0-0-0--2-2-2-2--3-3-3-3------|

(Gradually Build)
-3-3-3-3-3-3-3-3-3-3-3-3-3-3-3-3-----------------------------------------|
-1-1-1-1-1-1-1-1-1-1-1-1-1-1-1-1-----------------------------------------|
-0-0-0-0-0-0-0-0-0-0-0-0-0-0-0-0-----------------------------------------|
-2-2-2-2-2-2-2-2-2-2-2-2-2-2-2-2-----------------------------------------|
-3-3-3-3-3-3-3-3-3-3-3-3-3-3-3-3-----------------------------------------|
-------------------------------------------------------------------------|

Solo(x2)
-3-3-3-3-x-x-x-x-3-3-3-3-x-x-x-x--3-3-3-3-x-x-x-x--3-3-3-3--3-3-3-3------|
-1-1-1-1-x-x-x-x-1-1-1-1-x-x-x-x--1-1-1-1-x-x-x-x--1-1-1-1--1-1-1-1------|
-0-0-0-0-x-x-x-x-0-0-0-0-x-x-x-x--0-0-0-0-x-x-x-x--0-0-0-0--0-0-0-0------|
-2-2-2-2-x-x-x-x-2-2-2-2-x-x-x-x--0-0-0-0-x-x-x-x--0-0-0-0--0-0-0-0------|
-3-3-3-3-x-x-x-x-3-3-3-3-x-x-x-x--2-2-2-2-x-x-x-x--0-0-0-0--0-0-0-0------|
----------------------------------0-0-0-0-x-x-x-x--2-2-2-2--3-3-3-3------|

Slow Interlude(x2)
-3~~---3~~---3~~---3~~---3~~---------------------------------------------|
-1~~---1~~---1~~---1~~---1~~---------------------------------------------|
-0~~---0~~---0~~---0~~---0~~---------------------------------------------|
-2~~---0~~---2~~---0~~---0~~---------------------------------------------|
-3~~---2~~---3~~---0~~---0~~---------------------------------------------|
-------------------2~~---3~~---------------------------------------------|

(Gradually Build)
-3-3-3-3-3-3-3-3-3-3-3-3-3-3-3-3-----------------------------------------|
-1-1-1-1-1-1-1-1-1-1-1-1-1-1-1-1-----------------------------------------|
-0-0-0-0-0-0-0-0-0-0-0-0-0-0-0-0-----------------------------------------|
-2-2-2-2-2-2-2-2-2-2-2-2-2-2-2-2-----------------------------------------|
-3-3-3-3-3-3-3-3-3-3-3-3-3-3-3-3-----------------------------------------|
-------------------------------------------------------------------------|

For Rest Of Song
-3-3-3-3-3-3-3-3-3-3-3-3-3-3-3-3--3-3-3-3-3-3-3-3--3-3-3-3--3-3-3-3------|
-1-1-1-1-1-1-1-1-1-1-1-1-1-1-1-1--1-1-1-1-1-1-1-1--1-1-1-1--1-1-1-1------|
-0-0-0-0-0-0-0-0-0-0-0-0-0-0-0-0--0-0-0-0-0-0-0-0--0-0-0-0--0-0-0-0------|
-2-2-2-2-2-2-2-2-2-2-2-2-2-2-2-2--0-0-0-0-0-0-0-0--0-0-0-0--0-0-0-0------|
-3-3-3-3-3-3-3-3-3-3-3-3-3-3-3-3--2-2-2-2-2-2-2-2--0-0-0-0--0-0-0-0------|
----------------------------------0-0-0-0-0-0-0-0--2-2-2-2--3-3-3-3------|

At The Very End
-3-3-3-3-----------------------------------------------------------------|
-1-1-1-1-----------------------------------------------------------------|
-0-0-0-0-----------------------------------------------------------------|
-2-2-2-2-----------------------------------------------------------------|
-3-3-3-3-----------------------------------------------------------------|
-------------------------------------------------------------------------|
Tap to rate this tab
 
# A B C D E F G H I J K L M N O P Q R S T U V W X Y Z