Song name
# A B C D E F G H I J K L M N O P Q R S T U V W X Y Z

Misc Unsigned Bands - Split Second Kill - Shit Hawk tab

Help us improve GuitareTab! Take a short survey!
this song sounds better on an acoustic guitar but if you dont have one play it clean on 
electric.

----------------------------5---5---5---5---5---5---5-----|
--4--4--3--3--2--2--3--3--4---4---3---3---2---2---3---3---|
----------------------------------------------------------|
----------------------------------------------------------|
----------------------------------------------------------|
----------------------------------------------------------|

---5--5---5---5--5---5---5--5---5---5--5--5-5-5-555-------|
-4---4-4----3---3-3----2---2-2----3---3-3-----------------|
----------------------------------------------------------|
----------------------------------------------------------|
----------------------------------------------------------|
----------------------------------------------------------|
Related for Split Second Kill - Shit Hawk tab