Song name
# A B C D E F G H I J K L M N O P Q R S T U V W X Y Z

Misc Unsigned Bands - Diary Of A Murder - Nuns And Guns tab

-------------------------------------------------------------------------------
			     Nuns and Guns-Diary of a Murder
-------------------------------------------------------------------------------
Tabbed by:Blaize
Email:

Tuning:Drop D tuning

e|-------------------------------------------------------------|
B|-------------------------------------------------------------|
G|-------------------------------------------------------------|
D|-------3-2-------5-2--------3-2-3-/5-3-2-3+--------------x4--|
A|-00-00-----00-00-----00-00-----------------------------------|
D|-00-00-----00-00-----00-00-----------------------------------|
   ** **     ** **     ** **
e|----------------------------------------------------|
B|----------------------------------------------------|
G|----------------------------------------------------|
D|-3--33-33-33--5-55-55-55---9-----10----9------------|
A|-3--33-33-33--5-55-55-55---7--x8-7--x8-7--x8----x2--|
D|-3--33-33-33--5-55-55-55---7-----7-----7------------|

e|--------------------------------------------------------------|
B|--------------------------------------------------------------|
G|--------------------------------------------------------------|
D|-3-33-33-33--5-55-55-55---9------10-----10-9-7-9-10-9-7-7-h9--|
A|-3-33-33-33--5-55-55-55---7--x8--7--x8------------------------|
D|-3-33-33-33--5-55-55-55---7------7----------------------------|

e|-----------------------------------------------|
B|-----------------------------------------------|
G|-----------------------------------------------|
D|-3-3333--5-5555-9-9999--10-9-7-9h-7p-9h-7p-----|
A|-3-3333--5-5555-7-7777---------------------x2--|
D|-3-3333--5-5555-7-7777-------------------------|
     ****    ****   ****
e|-------------------------------------------------------------------------------------|
B|-------------------------------------------------------------------------------------|
G|-------------------------------------------------------------------------------------|
D|-0---000---0---000-------------------------------------------------------------------|
A|-0---000---0---000-------------------------------------------------------------------|
D|-0---000---0---000-------------------------------------------------------------------|
       ***       ***
e|-----------------------------------------------------------------------------|
B|-----------------------------------------------------------------------------|
G|-----------------------------------------------------------------------------|
D|-01203201203200--8--01203201203200--6-01203201203200--4-0120320000--3+-------|
A|-01203201203200--8--01203201203200--6-01203201203200--4-0120320000-------x3--|
D|-01203201203200--8--01203201203200--6-01203201203200--4-0120320000-----------|
   **************     **************    **************    **********
e|------------------------|
B|------------------------|
G|------------------------|
D|-0-000--0-000--0--0--0--|
A|-0-000--0-000--0--0--0--|
D|-0-000--0-000--0--0--0--|
     ***    ***  *  *  *
e|------------------------------------------------------|
B|------------------------------------------------------|
G|------------------------------------------------------|
D|-0000000--0-------------------------------------------|
A|-0000000--0--x-8-8th-one-slide-all-the-way-down-neck--|
D|-0000000--0-------------------------------------------|
   *******
e|--------------------------------------|
B|--------------------------------------|
G|--------------------------------------|
D|-00000-00000-11111-11111--------------|
A|-00000-00000-11111-11111--------------|
D|-00000-00000-11111-11111-slide-up-x4--|
   ***** ***** ***** *****

| * palm mute
| /  slide up
| \  slide down
| h  hammer-on
| p  pull-off
| ~  vibrato
| +  harmonic
| x  Mute note
===============================================================================
Tap to rate this tab
# A B C D E F G H I J K L M N O P Q R S T U V W X Y Z