Song name
# A B C D E F G H I J K L M N O P Q R S T U V W X Y Z

Misc Unsigned Bands - Bullets Goes Better - I Will Keep My Head For Your Pillow tab

(Acoustic Song)

Symbols
h = Hammer
> = Let Ring
/ = slide Down

Intro. 

e|----------------------------------------------------------|
B|----------------------------------------------------------|
G|-----0---0-------0---0----------0---0--------0---0--------|
D|---0---0---0---0---0---0------0---0---0----0---0---0------|
A|-3-----------3------------3-2------------2-----------2-3--|
E|----------------------------------------------------------|

Verse.1

e|----------------------------------------|
B|-0-000-0-0-0000-00-0-000-0-0-0000-0-----|
G|-0-000-0-0-0000-00-0-000-0-0-0000-0-----|
D|-0-000-0-0-0000-00-0-000-0-0-0000-0-----|
A|-3-333-3-3-3333-33/2-222-2-2-2222/3-----|
E|----------------------------------------|

Pre-Chorus

e|-------------------------------------------|
B|-000-0-000-0-000-0-000-000-0-000-000000----|
G|-000-0-000-0-000-0-000-000-0-000-000000----|
D|-555-5-555-5-444-4-444-555-5-555-555555----|
A|-777-7-777-7-555-5-555-333-3-333-333333----|
E|-------------------------------------------|

Break

e|-------------------------------------------------------------------------|
B|-------------------------------------------------------------------------|
G|--------0-------------------0-----------------0-----0----0---0-----------|
D|----5-----5---5---------4-----4-----------5-----5-----5----5---5---------|
A|-77---7-----7---(x2)-55---5-----5-(x2)-33---3-----3-----3---------3-(x2)-|
E|-------------------------------------------------------------------------|


Chords For Chorus. (UnStrummed)

e|-0000-3333-2222-5555-------------|During chorus
B|-0000-3333-3333-5555-------------|    
G|-0000-0000-0000-0000-------------|
D|-2222-2222-0000-0000-------------|
A|-2222-3333-2222-4444-------------|
E|-----------3333-5555-------------|Several Times

Bridge to Verse.2

e|--------------------------------|
B|--------------------------------|
G|---0---0----------0---0---------|
D|-5---4-----4h54-5---4-----4h54--|
A|-7---5---5------3---5---5-------|
E|--------------------------------|(x2)

e|-------------------------------------------------|
B|-------------------------------------------------|
G|--0---0---0---0---0---0-7---7--0--0---0---0--0---|
D|-9-9-7-7-5-5-4-4-5-5-7----7---7--5-5-4-4-5-5-----|
A|-------------------------------------------------|
E|-------------------------------------------------|

Verse.2
-Same as Verse.1

e|----------------------------------------|
B|-0-000-0-0-0000-00-0-000-0-0-0000-0-----|
G|-0-000-0-0-0000-00-0-000-0-0-0000-0-----|
D|-0-000-0-0-0000-00-0-000-0-0-0000-0-----|
A|-3-333-3-3-3333-33/2-222-2-2-2222/3-----|
E|----------------------------------------|

outro.

e|--------------------------3>--------|
B|--------------------------3>--------|
G|-----0-----0-----0-----0--0>--------|
D|---0-----0-----0-----0----2>--------|
A|-7-----5-----3-----2------3>--------|
E|------------------------------------|


Lyrics.
Verse 1.
Try not to stab me
while i look in your eyes
try not to taught me
how to breath witouth you
Try not to break me
as you leave me behind

Pre-Chorus
And all this times your been so hard
not to make you go witouth me
Witouth you.
and i will have to keep my hands of from you.
and i will keep my head for your pillow, just if you ask me.

Chorus.
i will stay for you
i will keep you in my mind
just to wait until you come and ask me 
how ive been doing lately
and my only answer would be
ive been doing better

Verse.2
and ill try not to miss you
while i look in the mirror
and i will have to learn how to breathe
and i will try not to hurt my lungs
as my heart breaks down
and as i see you reflecting away

Pre Chorus
And all this times your been so hard
not to make you go witouth me
Witouth you.
and i will have to keep my hands of from you.
and i will keep my head for your pillow, just if you ask me.

Chorus.

Any Comments To:
Jasflick@hotmail.com



Tap to rate this tab
# A B C D E F G H I J K L M N O P Q R S T U V W X Y Z