Song name
# A B C D E F G H I J K L M N O P Q R S T U V W X Y Z

Misc Unsigned Bands - Five Foot Fly - Fly High tab

----------------------------------------------------------------------------
			     SONG NAME - Five Foot Fly
----------------------------------------------------------------------------
Tabbed by: Chucky
Email: bucketdumper@cox.net

Tuning:Standard
Intro
e|----------------------------------------------------------------------|
B|----------------------------------------------------------------------|
G|----------------------------------------------------------------------|
D|----------------------------------------------------------------------|X4
A|-------5-7--2-3----5-7777---5-7777---2-3333---------------------------|
E|-0000-----------------------------------------------------------------|

e|-----------------------------------------------------------------------|
B|-----------------------------------------------------------------------|
G|---------7--9---4-5----7-9999----7-9999---4-5555-----------------------|
D|---------7--9---4-5----7-9999----7-9999---4-5555-----------------------|
A|--2222---5--7---2-3----5-7777----5-7777---2-3333-----------------------|
E|--0000-----------------------------------------------------------------|

Play Alot
 Very Simple Song

| /  slide up
| \  slide down
| h  hammer-on
| p  pull-off
| ~  vibrato
| +  harmonic
| x  Mute note
=====================================================================
Tap to rate this tab
 
# A B C D E F G H I J K L M N O P Q R S T U V W X Y Z