Song name
# A B C D E F G H I J K L M N O P Q R S T U V W X Y Z

Misc Unsigned Bands - Paramnesia - Cold World tab

---------------------------------------------------------------------|
---------------------------------------------------------------------|
---------------------------------------------------------------------|
---------------------------------------------------------------------|
--------3---2---------3---2--------5---4----------9---10-------------|
-0-0-0----0---0-0-0-0---0----3-3-3---3---3--7-7-7---7----------------|
   . .    .   .   . .   .      . .   .   .    . .   .


---------------------------------------------------------------------|
---------------------------------------------------------------------|
---------------------------------------------------------------------|
---------------------------------------------------------------------|
---3-2---3-2---5-4---9-10--------------------------------------------|
-0-----0-----3-----7-------------------------------------------------|
Tap to rate this tab
# A B C D E F G H I J K L M N O P Q R S T U V W X Y Z