Song name
# A B C D E F G H I J K L M N O P Q R S T U V W X Y Z

Misc Unsigned Bands - The Boys After - Cliques Are For Highschool Girls tab

www.myspace.com/theboysafter
www.purevolume.com/theboysafter

Tuning:

High E, B, and G strings -    1/2  Step Down
D, A, and Low E strings  -  1 1/2  Step Down

(Eb Bb Gb B Gb Db)

.=PALM MUTE
x=MUTE STRING
/=SLIDE
*=HARMONIC
~=LET RING


[intro]

Rhythm Guitar
x4
---------------------------------|
---------------------------------|
---------------------------------|
xxx-77/22-0-00-0h4-44-4h2-22-----|
xxx-77/22-0-00-0h4-44-4h2-22-----|
xxx-77/22-0-00-0h4-44-4h2-22-----|

Lead Guitar
x2(Come in on 3&4th time)
---------------------------------|
---------------------------------|
---------------------------------|
7h9s11-9-2~-7h9s11-12-11-11-9~---|
---------------------------------|
---------------------------------|

Rhythm Guitar
x2
---------------------------------------|
---------------------------------------|
---------------------------------------|
0~-0x-0x-0x-0x-0x-0x--0h4~-44--0h2~-22-|
0~-0x-0x-0x-0x-0x-0x--0h4~-44--0h2~-22-|
0~-0x-0x-0x-0x-0x-0x--0h4~-44--0h2~-22-|

Lead Guitar
x2
---------------------------------------|
---------------------------------------|
777-999-111111-666-44/999-4~-----------|
xxx-xxx-x-x-x--xxx-xx/xxx-x~-----------|
555-777-9-9-9--444-22/444-2~-----------|
---------------------------------------|

Verse

---------------------------------------|
---------------------------------------|
---------------------------------------|
7~-----777-----------------------------|
7~-----777-----------------------------|
7~-----777-----------------------------|

(Then just Bass for one measure)

Both Guitars
x2
---------------------------------------|
---------------------------------------|
---------------------------------------|
-777-777-777-777-222-222-000-000-------|
-777-777-777-777-222-222-000-000-------|
-777-777-777-777-222-222-000-000-------|
 ..  ..  ..  ..  ..  ..  ..  ..

Rhythm Guitar
x2
----------------------------------------------|
----------------------------------------------|
----------------------------------------------|
777777777777-222222-000000--------------------|
777777777777-222222-000000--------------------|
777777777777-222222-000000--------------------|
............ ...... ......

Lead Guitar
X2
-----------------------------------------------|
-----------------------------------------------|
-----------------------------------------------|
777-111111-777-121212-777-111111-777h12p7h11p7-|
-----------------------------------------------|
-----------------------------------------------|
... ...... ... ...... ... ...... .............


Chours

Rhythm Guitar
x4
-------------------------------|
-------------------------------|
-------------------------------|
xxx-77/22-0-00-0h4-44-4h2-22---|
xxx-77/22-0-00-0h4-44-4h2-22---|
xxx-77/22-0-00-0h4-44-4h2-22---|

Lead Guitar
x2(Come in on 3&4th time)
-------------------------------|
-------------------------------|
-------------------------------|
7h9s11-9-2~-7h9s11-12-11-11-9~-|
-------------------------------|
-------------------------------|

Rhythm Guitar
x2
---------------------------------------|
---------------------------------------|
---------------------------------------|
0~-0x-0x-0x-0x-0x-0x--0h4~-44--0h2~-22-|
0~-0x-0x-0x-0x-0x-0x--0h4~-44--0h2~-22-|
0~-0x-0x-0x-0x-0x-0x--0h4~-44--0h2~-22-|

Lead Guitar
x2
---------------------------------------|
---------------------------------------|
777-999-111111-666-44/999-4~-----------|
xxx-xxx-x-x-x--xxx-xx/xxx-x~-----------|
555-777-9-9-9--444-22/444-2~-----------|
---------------------------------------|


Verse 2
Rhythm Guitar
-------------------------------------------|
-------------------------------------------|
9~999999999999999999999999x----------------|
7~777777777777777777777777x----------------|
7~777777777777777777777777x----------------|
7~777777777777777777777777x----------------|

Both Guitars
Lead X2 Rhytem x4(up & down strokes)
-------------------------------------------|
-------------------------------------------|
-------------------------------------------|
7-7777777777-2-222222-0-000000-------------|
7-7777777777-2-222222-0-000000-------------|
7-7777777777-2-222222-0-000000-------------|
  ..........   ......   ......

After 2 through Lead Guitar plays
x2
-------------------------------------------|
-------------------------------------------|
9-99999999999999999999999999999------------|
x-xxxxxxxxxxxxxxxxxxxxxxxxxxxxx------------|
7-77777777777777777777777777777------------|
-------------------------------------------|


Chours

Rhythm Guitar
x4
---------------------------------|
---------------------------------|
---------------------------------|
xxx-77/22-0-00-0h4-44-4h2-22-----|
xxx-77/22-0-00-0h4-44-4h2-22-----|
xxx-77/22-0-00-0h4-44-4h2-22-----|

Lead Guitar
x2(Come in on 3&4th time)
---------------------------------|
---------------------------------|
---------------------------------|
7h9s11-9-2~-7h9s11-12-11-11-9~---|
---------------------------------|
---------------------------------|

Rhytem Guitar
x2
---------------------------------------|
---------------------------------------|
---------------------------------------|
0~-0x-0x-0x-0x-0x-0x--0h4~-44--0h2~-22-|
0~-0x-0x-0x-0x-0x-0x--0h4~-44--0h2~-22-|
0~-0x-0x-0x-0x-0x-0x--0h4~-44--0h2~-22-|

Lead Guitar
x2
---------------------------------------|
---------------------------------------|
777-999-111111-666-44/999-4~-----------|
xxx-xxx-x-x-x--xxx-xx/xxx-x~-----------|
555-777-9-9-9--444-22/444-2~-----------|
---------------------------------------|


Bridge

Rhythm Guitar
x2
-------------------------------------------|
-------------------------------------------|
-------------------------------------------|
7~--2~-0~----------------------------------|
7~--2~-0~----------------------------------|
7~--2~-0~----------------------------------|

Lead Guitar
x2
-------------------------------------------|
-------------------------------------------|
9~-4-4/6\4~--------------------------------|
x~-x-x/x\x~--------------------------------|
7~-2-2/4\2~--------------------------------|
-------------------------------------------|

Rhythm Guitar
X7
-------------------------------------------|
-------------------------------------------|
-------------------------------------------|
7-7777777777-2-222222-0-000000-------------|
7-7777777777-2-222222-0-000000-------------|
7-7777777777-2-222222-0-000000-------------|
  ..........   ......   ......

Lead Guiar
-------------------------------------------|
-------------------------------------------|
----9-----9-----9s11~----------------------|
6h7---6h7-------------11s9~----------------|
-----------(x3)----------------------------|
-------------------------------------------|

Pre Chourse
Acoustic Rhythm Guitar
---------------------------------|
---------------------------------|
---------------------------------|
xxx-77/22-0-00-------------------|
xxx-77/22-0-00-------------------|
xxx-77/22-0-00-------------------|

Both Guitars come in at
---------------------------------|
---------------------------------|
---------------------------------|
0h4-44-4h2-22--------------------|
0h4-44-4h2-22--------------------|
0h4-44-4h2-22--------------------|


Rhythm Guitar
x3
-------------------------------|
-------------------------------|
-------------------------------|
xxx-77/22-0-00-0h4-44-4h2-22---|
xxx-77/22-0-00-0h4-44-4h2-22---|
xxx-77/22-0-00-0h4-44-4h2-22---|

Lead Guitar
(Come in after Rhythm plays once through)
-------------------------------|
-------------------------------|
-------------------------------|
7h9s11-9-2~-7h9s11-12-11-11-9~-|
-------------------------------|
-------------------------------|

Rhythm Guitar
x2
---------------------------------------|
---------------------------------------|
---------------------------------------|
0~-0x-0x-0x-0x-0x-0x--0h4~-44--0h2~-22-|
0~-0x-0x-0x-0x-0x-0x--0h4~-44--0h2~-22-|
0~-0x-0x-0x-0x-0x-0x--0h4~-44--0h2~-22-|

Lead Guitar
x2
---------------------------------------|
---------------------------------------|
777-999-111111-666-44/999-4~-----------|
xxx-xxx-x-x-x--xxx-xx/xxx-x~-----------|
555-777-9-9-9--444-22/444-2~-----------|
---------------------------------------|
END

Lyrics-

Chours:

Just keep it up and you will see...
Just keep it up, Just keep it up.
x2
Shut your mouth, when your talking to me
x2
I can't see you walking away from this.
I can't see you walking away.
Tap to rate this tab
# A B C D E F G H I J K L M N O P Q R S T U V W X Y Z