Guitaretab - guitar tabs
Song name
# A B C D E F G H I J K L M N O P Q R S T U V W X Y Z

Misc Unsigned Bands - Alliance 49 - Freaked Out tab

Intro: 1

e|----------------------------| x4
b|----------------------------|
g|----------------------------|
d|----------------------------|
a|----------------------------|
E|-3333-4-4-5-5-3333-4-4-5-5--|

Intro: 2

e|----------------------------| x4
b|----------------------------|
g|----------------------------|
d|-3333-4-4-5-5-3333-4-4-5-5--|
a|-3333-4-4-5-5-3333-4-4-5-5--|
E|-3333-4-4-5-5-3333-4-4-5-5--|

Fill

e|----------------------------|
b|----------------------------|
g|----------------------------|
d|-3-3-5-55-------------------|
a|-3-3-5-55-------------------|
E|-3-3-5-55-------------------|

Verse

e|---------------------------------------|
b|---------------------------------------|
g|-------------------x2------------------|
d|-555-5-5--777-7-7-----5-5-5-5-7-7-7-7--|
a|-555-5-5--777-7-7-----5-5-5-5-7-7-7-7--|
E|-333-3-3--555-5-5-----3-3-3-3-5-5-5-5--|
pm ... . .  ... . .     . . . . . . . .

Chorus

e|-----------------------------------|
b|-----------------------------------|
g|-----------------------------------|
d|-5-3--3-3-5-33-5-5-5-7-55-7--5-3---|
a|-5-3--3-3-5-33-5-5-5-7-55-7--5-3---|
E|-5-3--3-3-5-33-5-5-5-7-55-7--5-3---|

e|--------------------------------------------|
b|--------------------------------------------|
g|--------------------------------------------|
d|-5-5-7-3--5-3--3-3-5-33-5-5-5-7-55-7-7-5-3--|
a|-5-5-7-3--5-3--3-3-5-33-5-5-5-7-55-7-7-5-3--|
E|-5-5-7-3--5-3--3-3-5-33-5-5-5-7-55-7-7-5-3--|

Verse
[ Tab from: http://www.guitaretab.com/m/misc-unsigned-bands/91722.html ]
e|---------------------------------------------------------------|
b|---------------------------------------------------------------|
g|---------------------------------------------------------------|
d|-555-5-5--777-7-7--3-3-5-55--555-5-5--777-7-7-5-5-5-5-7-7-7-7--|
a|-555-5-5--777-7-7--3-3-5-55--555-5-5--777-7-7-5-5-5-5-7-7-7-7--|
E|-333-3-3--555-5-5--3-3-5-55--333-3-3--555-5-5-3-3-3-3-5-5-5-5--|
pm ... . .  ... . .  . . . ..  ... . .  ... . . . . . . . . . . 

Chorus

e|-----------------------------------|
b|-----------------------------------|
g|-----------------------------------|
d|-5-3--3-3-5-33-5-5-5-7-55-7--5-3---|
a|-5-3--3-3-5-33-5-5-5-7-55-7--5-3---|
E|-5-3--3-3-5-33-5-5-5-7-55-7--5-3---|

e|--------------------------------------------|
b|--------------------------------------------|
g|--------------------------------------------|
d|-5-5-7-3--5-3--3-3-5-33-5-5-5-7-55-7-7-5-3--|
a|-5-5-7-3--5-3--3-3-5-33-5-5-5-7-55-7-7-5-3--|
E|-5-5-7-3--5-3--3-3-5-33-5-5-5-7-55-7-7-5-3--|

Intro: 2

e|----------------------------| x6
b|----------------------------|
g|----------------------------|
d|-3333-4-4-5-5-3333-4-4-5-5--|
a|-3333-4-4-5-5-3333-4-4-5-5--|
E|-3333-4-4-5-5-3333-4-4-5-5--|

Outro

e|-------------------------------| x2
b|-------------------------------|
g|-------------------------------|
d|-5xx5xxxx5-55-7xx7xx7xxxx7-77--|
a|-5xx5xxxx5-55-7xx7xx7xxxx7-77--|
E|-3xx3xxxx3-33-5xx5xx5xxxx5-55--|

Chorus

e|-----------------------------------|
b|-----------------------------------|
g|-----------------------------------|
d|-5-3--3-3-5-33-5-5-5-7-55-7--5-3---|
a|-5-3--3-3-5-33-5-5-5-7-55-7--5-3---|
E|-5-3--3-3-5-33-5-5-5-7-55-7--5-3---|

e|--------------------------------------------|
b|--------------------------------------------|
g|--------------------------------------------|
d|-5-5-7-3--5-3--3-3-5-33-5-5-5-7-55-7-7-5-3--|
a|-5-5-7-3--5-3--3-3-5-33-5-5-5-7-55-7-7-5-3--|
E|-5-5-7-3--5-3--3-3-5-33-5-5-5-7-55-7-7-5-3--|
Related for Alliance 49 - Freaked Out tab
Advertisement will be closed in 10 seconds