Song name
# A B C D E F G H I J K L M N O P Q R S T U V W X Y Z

Misc Unsigned Bands - Fallen Life - I Hope You Know tab

.  palm mute
/  slide
p  pull off
() natural harmonics
x  mute note
b  bend

INTRO:
e--2---2---2--------------------------|
B---2---2---2-------------------------|
G----2---2---2------------------------|
D--------------44444544444------------|
A--------------44444544444------------|
E--------------44444544444------------|
               ...........

VERSE:
e--4p5-7p8-4p5-7p8--9p11--|
B-------------------------|
G-------------------------|
D-------------------------|  x14
A-------------------------|
E--0-----------0----------|

Chorus:
e--77-5-(6)------5------|
B----05-7--6-----5------|
G--99-5-----------  x10-|
D--77-5-----------------|
A-----5------4//--------|
E-----5------4//--------|
      .          .

VERSE:
e--4p5-7p8-4p5-7p8--9p11--|
B-------------------------|
G-------------------------|
D-------------------------|  x14
A-------------------------|
E--0-----------0----------|

Chorus:
e--77-5-(6)------5------|
B----05-7--6-----5------|
G--99-5-----------  x10-|
D--77-5-----------------|
A-----5------4//--------|
E-----5------4//--------|
      .          .

SOLO:
e--7-6-5-4-3-2-1----10-5-6-(9)-|
B-8-7-6-5-4-3-2-1---10--4--1---|
G--6-5-4-3-2-1-0----10---------|
D-------------------11----3----|
A-------------------10---------|
E-------------------0----------|
                    .     .

e---4-2-1-7-4--------9-----|
B---4-2-1-7-4--------------|
G--------------------------|
D--------------------------|
A--9-9-0-4-----(10)---///--|
E--xxxxxxx-----------9///--|

e--18b-17b---22-20-24-|
B-----17--18-19-------|
G---------------------|
D--------16b----------|
A--------x------------|
E--------------21b----|
                    .

Chorus:
e--77-5-(6)------5------|
B----05-7--6-----5------|
G--99-5-----------  x10-|
D--77-5-----------------|
A-----5------4//--------|
E-----5------4//--------|
      .          .

OUTRO:
e-----------------2---2----|
B------------------2---2---|
G--555-555-555------2---2--|
D--666-666-666-------------|
A--666-666-666-------------|
E--------------------------|
   ... ... ...

Let the last note ring.
This is another difficult song from Fallen Life, so practice your ass off to get it.
Tap to rate this tab
 
# A B C D E F G H I J K L M N O P Q R S T U V W X Y Z