Song name
# A B C D E F G H I J K L M N O P Q R S T U V W X Y Z

Misc Unsigned Bands - Your Morning Coffee - No Name Yet tab

Help us improve GuitareTab! Take a short survey!
intro
e|-------------------------------------------|
b|----11---11---11---11------9---9---9---9---|
g|--11---11---11---11--11--11--11--11--11-11-|
d|-9----9----9----9-------9---9---9---9------|
a|-------------------------------------------|
D|-------------------------------------------|

e|------------------------------------------|
b|----11---11---11---11------9---9---9---9~-|
g|--11---11---11---11--11--11--11--11--11---|
d|-9----9----9----9-------9---9---9---9-----|
a|------------------------------------------|
D|------------------------------------------|

verse 1
e|------------------------------------------------|
b|------------------------------------------------|
g|------22-22-----------------22-22---------------|
d|------22-22------44-44------22-22---------------|
a|-2444-00-00-2444-44-44-2444-00-00-2444-22224444-|
D|-----------------44-44-----------------22224444-|

chorus
e|------------------------------------------------------------|
b|------------------------------------------------------------|
g|------------------------------------------------------------|
d|------------------------------------------------------------|
a|-99-99-99-9999-55-55-55-5555-77-77-77-7777-2222222222222222-|
D|-99-99-99-9999-55-55-55-5555-77-77-77-7777-2222222222222222-|

verse 2
e|---------------------------------------------|
b|---------------------------------------------|
g|------22-22-----------------22-22------------|
d|------22-22------44-44------22-22------22-22-|
a|-2444-00-00-2444-44-44-2444-00-00-2444-22-22-|
D|-----------------44-44-----------------22-22-|

verse 3
e|------------------------------------------------|
b|------------------------------------------------|
g|------22-22-----------------22-22---------------|
d|------22-22------44-44------22-22---------------|
a|-2444-00-00-2444-44-44-2444-00-00-2444-22224444-|
D|-----------------44-44-----------------22224444-|

chorus
e|------------------------------------------------------------|
b|------------------------------------------------------------|
g|------------------------------------------------------------|
d|------------------------------------------------------------|
a|-99-99-99-9999-55-55-55-5555-77-77-77-7777-2222222222222222-|
D|-99-99-99-9999-55-55-55-5555-77-77-77-7777-2222222222222222-|

chorus
e|-------------------------------------------------------------|
b|-------------------------------------------------------------|
g|-------------------------------------------------------------|
d|-------------------------------------------------------------|
a|-99-99-99-9999-55-55-55-5555-77-77-77-7777-2222222222222222~-|
D|-99-99-99-9999-55-55-55-5555-77-77-77-7777-2222222222222222~-|

outro
e|-------------------------------------------|
b|----11---11---11---11------9---9---9---9---|
g|--11---11---11---11--11--11--11--11--11-11-|
d|-9----9----9----9-------9---9---9---9------|
a|-------------------------------------------|
D|-------------------------------------------|

e|------------------------------------------|
b|----11---11---11---11------9---9---9---9~-|
g|--11---11---11---11--11--11--11--11--11---|
d|-9----9----9----9-------9---9---9---9-----|
a|------------------------------------------|
D|------------------------------------------|
Related for Your Morning Coffee - No Name Yet tab