Song name
# A B C D E F G H I J K L M N O P Q R S T U V W X Y Z

Misc Unsigned Bands - Hero Of An Angel - Its Only Me tab

play thruout the whole song repeat each cycle

e|------------------|
b|------------------|
g|-------0---0------|  2x
d|-----4---4---4----|
a|---2--------------|
E|-0----------------|


e|------------------|
b|------------------|
g|-------0---0------|  2x
d|-----4---4---4----|
a|---0--------------|
E|-2----------------|


e|------------------|
b|------------------|
g|-------0---0------|  2x
d|-----2---2---2----|
a|---2--------------|
E|-0----------------|


e|------------------|
b|------------------|
g|-------3---3------|  2x
d|-----3---3---3----|
a|---2--------------|
E|-0----------------|

its only me

this is all theres eva ben,

its probably all theres ever gonna be,

i hope that we can still be freinds,

but ya gotta realize its only me


i remember all our good times,

and i remember all the bad,

i told myself that it'll be fine,

i didnt know that you would get so mad.


i wish i coulda given you more,

but its juuuuuuuuust me,

i wish i had more for us in store,

but its juuuuuuuuust me,

i'm sorry to do this to ya babay,

but i gotta set you freeeeeeeeeee,

cause in the end its only me.


i could tell you lies to make ya feel better,

but in the end it wouldnt do any good,

i know the truth wasnt like my letters,

but i feel that i should tell you thissssss,

i want one final kiss.



i wish i coulda given you more,

but its juuuuuuuuust me,

i wish i had more for us in store,

but its juuuuuuuuust me,

i'm sorry to do this to ya babay,

but i gotta set you freeeeeeeeeeee,

cause in the end its only me,


i told myself it was for the best,

but your better than all the rest,

it'll be hard to let you go,

butchya gotta knowwwwwwwwwwwwwwwwww,

its only meeeeeeeeeeeeeee.



i wish i coulda given you more,

but its juuuuuuuuust me,

i wish i had more for us in store,

but its juuuuuuuuust me,

i'm sorry to do this to ya babay,

but i gotta set you freeeeeeeeeeee,

cause in the end its only me,

yeaaaaa its only meeeeeeeeeeee,

ohhhhhhhhhhhhhhhhhhhh only meeeeeeeeeeeeee,

its only meeeeeeeeeeeee.









Tap to rate this tab
# A B C D E F G H I J K L M N O P Q R S T U V W X Y Z