Song name
# A B C D E F G H I J K L M N O P Q R S T U V W X Y Z

Misc Unsigned Bands - A Million Pieces - Opener tab

Tabbed by: Mike
Tuning:


e|------0----0----0-------------0-----0--------------0----0----0---------|
B|----3--3-----3----3---3-----3---3-----3---3------3---3----3----3---3---|
G|--2------2-----2----2-----2-------2-----2------2-------2----2----2-----|
D|0----------------------------------------------------------------------|
A|-------------------------0-------------------1-------------------------|
d|-----------------------------------------------------------------------|

e|------0-----0-----0--------|
B|----3---3-----3-----3---3--|
G|--2-------2-----2-----2----|
D|---------------------------|
A|---------------------------|
d|-0-------------------------|

e------0----0----0-------------0-----0--------------0----0----0----------|
B----3--3-----3----3---3-----3---3-----3---3------3---3----3----3---3----|
G--2------2-----2----2-----2-------2-----2------2-------2----2----2------|
D-0----------------------------------------------------------------------|
A-------------------------0-------------------1--------------------------|
d------------------------------------------------------------------------|

e|-------0-----0-------0---------------------------------------------------|
B|-----3---3-----3-------3-------------------------------------------------|
G|---3-------3-----3--------3----------------------------------------------|
D|-------------------------------------------------------------------------|
A|-------------------------------------------------------------------------|
d|-0-----------------------------------------------------------------------|


| /  slide up
| \  slide down
| h  hammer-on
| p  pull-off
| ~  vibrato
| +  harmonic
| x  Mute note
============================================================================
Tap to rate this tab
# A B C D E F G H I J K L M N O P Q R S T U V W X Y Z