Song name
# A B C D E F G H I J K L M N O P Q R S T U V W X Y Z

Misc Unsigned Bands - Hells Imperfect Angels - Sister Silverspoon Acoustic tab

-------------------------------------------------------------------------------
			     SISTER SILVERSPOON - HELLS IMPERFECT ANGELS
-------------------------------------------------------------------------------
Tabbed by:SK8URHARTOUT
Email:emo.fun.cameron@gmail.com
Tuning:normal
       Em                                             C
e|---------------------0-----------------------------------------0-----------|
B|--------------------------0---------------------------------1--------------|
G|-----------------0-------------0-------------------------0-----------------|
D|-----------2------------------------2/4\2--2-0-------2---------------------|
A|------2-----------------------------------------3--------------------------|
E|--0------------------------------------------------------------------------|
              D                Em                            C
e|-----------------2-----2h3p2---------0-----------------------------0-------|
B|--1-----------3-----3-------------------0------------------------1---------|
G|-----2-----2----------------------0--------0-------------------0-----------|
D|--------0-----------------------2-------------2/4\2--2-0-----2-------------|
A|------------------------------2----------------------------3---------------|
E|----------------------------0----------------------------------------------|
               Am                 Em 
e|-------------------0-------------------0-----------------------------------|
B|----------------1------------------------0---------------------------------|
G|-------------2----------------------0------0-------------------------------|
D|-----------2----------------------2----------2-----------------------------|
A|--3--2--0-----------------------2------------------------------------------|
E|-----------------------3--2--0---------------------------------------------|
         Em                                        C
e|---------------------0-----------------------------------------0-----------|
B|--------------------------0---------------------------------1--------------|
G|-----------------0-------------0-------------------------0-----------------|
D|-----------2------------------------2/4\2--2-0-------2---------------------|
A|------2-----------------------------------------3--------------------------|
E|--0------------------------------------------------------------------------|
              D                  Em                          C
e|-----------------2-----2h3p2---------0-----------------------------0-------|
B|--1-----------3-----3-------------------0------------------------1---------|
G|-----2-----2----------------------0--------0-------------------0-----------|
D|--------0-----------------------2-------------2/4\2--2-0-----2-------------|
A|------------------------------2----------------------------3---------------|
E|----------------------------0----------------------------------------------|
             Am                 Em                          D   
e|-------------------0-------------------0----------strum --2----------------|
B|----------------1------------------------0------------------3--------------|
G|-------------2----------------------0------0------------------2------------|
D|-----------2----------------------2----------2-----------------------------|
A|--3--2--0-----------------------2------------------------------------------|
E|-----------------------3--2--0---------------------------------------------|


strum these notes through out the rest of the song:
Em  G  Em  C  D  Em  G  Em  C  D  G  D  C  D  G  D  C  D  

 
         Em                                        C
e|---------------------0-----------------------------------------0-----------|
B|--------------------------0---------------------------------1--------------|
G|-----------------0-------------0-------------------------0-----------------|
D|-----------2------------------------2/4\2--2-0-------2---------------------|
A|------2-----------------------------------------3--------------------------|
E|--0------------------------------------------------------------------------|
              D                 Em                           C
e|-----------------2-----2h3p2---------0-----------------------------0-------|
B|--1-----------3-----3-------------------0------------------------1---------|
G|-----2-----2----------------------0--------0-------------------0-----------|
D|--------0-----------------------2-------------2/4\2--2-0-----2-------------|
A|------------------------------2----------------------------3---------------|
E|----------------------------0----------------------------------------------| 
               Am                Em                            Em
e|-------------------0-------------------0----------------------------0------|
B|----------------1------------------------0------------------------0--------|
G|-------------2----------------------0------0--------------------0----------|
D|-----------2----------------------2----------2----------------2------------|
A|--3--2--0-----------------------2---------------------------2--------------|
E|-----------------------3--2--0-------------------strum----0----------------|



| /  slide up
| \  slide down
| h  hammer-on
| p  pull-off
| ~  vibrato
| +  harmonic
| x  Mute note
===============================================================================
Tap to rate this tab
# A B C D E F G H I J K L M N O P Q R S T U V W X Y Z