Song name
# A B C D E F G H I J K L M N O P Q R S T U V W X Y Z

Misc Unsigned Bands - Villified - Tear Down The Walls tab

-------------------------------------------------------------------------------
	          Tear Down The Walls- Villified
-------------------------------------------------------------------------------
Tabbed by:Willy Nilly1024
Email:c_v_booster123@hotmail.com

Tuning:Drop D - D,A,D,G,B,E



E|-------------------------------------------------------------------|
B|-------------------------------------------------------------------|
G|-------------------------------------------------------------------|
D|-----4---6---7-------4---6---7-------4---6---7-------4---7---6-----| 2X
A|---4---4---4---4---4---4---4---4---0---0---0---0---0---0---0---0---|
D|-4---------------4---------------0---------------0-----------------|

E|-------------------------------------------------------------------|
B|-------------------------------------------------------------------|
G|-------------------------------------------------------------------|
D|-----4---6---7-----4---6---7-------4---6---7---9-7-6---6h7h6-------|
A|---4---4---4-----0---0---0---0---2---2---2---2-------9-------7~----|
D|-4-------------0---------------2-----------------------------------|


E|--------------------------------------------------------------------|
B|--------------------------------------------------------------------|
G|--------------------------------------------------------------------|
D|-4-444-4-0-00-02-2-4-6--7^-6h7h6----4-444-4-0-00-02-2-2222222-------|
A|-4-444-4-0-00-02-2-4-6--------------4-444-4-0-00-02-2-2222222-7<-6<-|
D|-4-444-4-0-00-02-2-4-6-----------6~-4-444-4-0-00-02-2-2222222-7<-6<-|
     ...     .. .                       ...     .. .    .......


E|-------------------------------------------------|
B|-------------------------------------------------|
G|-------------------------------------------------|
D|-44--44--00--00-0-0-2-44--44--------------2222---|
A|-44--44--00--00-0-0-2-44--44--77-7-9-7-2--2222---|
D|-44--44--00--00-0-0-2-44--44--77-7-9-7-2--2222---|
   ..  ..  ..  .. . .   ..  ..              ....


E|------------------------------------------------------|
B|------------------------------------------------------|
G|------------------------------------------------------|
D|-44-6h7-6-----44-6h7-6-----00-6h7-6-----00-6h7-6------|  4X
A|-44-------7-4-44-------7-4-00-------7-4-00-------7-4--|
D|-44-----------44-----------00-----------00------------|



E|------------------------------------------------------|
B|------------------------------------------------------|
G|----4h6-4--------4h6-4--------4h6-4--------4h6-4------|
D|-44-------7-4-44-------7-4-00-------7-4-00-------7-4--|  2X
A|-44-----------44-----------00-----------00------------|
D|-44-----------44-----------00-----------00------------|


E|--------------|
B|--------------|
G|--------------|
D|-2-2-2-22<----|
A|-2-2-2-22<----|
D|-2-2-2-22<----|


E|------------------------------------------------------------------|
B|------------------------------------------------------------------|
G|-------------------(11'S NOT 1'S)---------------------------------|
D|-4-44-4-6-66-7-77-11-11-12-12<--12/4-44-4-6-6-7-7-9-99-9-7-7-6-6--|  2X
A|-4-44-4-4-44-4-44--9--9--9--9<---9/2-22-2-2-2-4-4-7-77-7-7-7-6-6--|
D|-4-44-4-4-44-4-44--9--9--9--9<---9/2-22-2-2-2-4-4-7-77-7-7-7-6-6--|


E|--------------------------------------------------------------------|
B|--------------------------------------------------------------------|
G|--------------------------------------------------------------------|
D|-4-44-444-444-444-0-00-000-222-222-4-44-444-444-444-77-77-22<-2222--|  2X
A|-4-44-444-444-444-0-00-000-222-222-4-44-444-444-444-77-77-22<-2222--|
D|-4-44-444-444-444-0-00-000-222-222-4-44-444-444-444-77-77-22<-2222--|
                                                                ....

E|---------------------------|
B|---------------------------|
G|---------------------------|
D|-6-6-000-6-6-000-6<-6<-4<--|
A|-4-4-000-4-4-000-4<-4<-2<--|
D|-4-4-000-4-4-000-4<-4<-2<--|
       ...     ...






E|------------------------------------------|
B|------------------------------------------|
G|------------------------------------------|
D|-44-4-7h9-7-6h7h6---4------6h7h6-4<-2222--|  4X
A|-44-4-------------7---22-2----------2222--|
D|-44-4-----------------22-2----------2222--|
   .. .                 .. .


E|------------------------------------------|
B|------------------------------------------|
G|------6h7-6-4h6h4----------4h6h4----------|
D|-44-4-------------6-7------------7<-------|  4X
A|-44-4-----------------77-7----------7777--|
D|-44-4-----------------66-6----------6666--|
   .. .                 .. .




E|--------------------------------------------------------------|
B|--------------------------------------------------------------|
G|--------------------------------------------------------------|
D|----6-4-7-4---4----6-4-7-4---4----6-4-7-4---4----6-4-7-4---6--|  3X
A|------------7--------------7--------------7--------------7----|
D|-44-------------44-------------00-------------22--------------|

E|---------------------------------------------------------|
B|---------------------------------------------------------|
G|---------------------------------------------------------|
D|-----6---7---9-11-12-11-9-11-9-7-9-7-6-7-6---4^-6^--44<--|
A|---4---7---7-------------------------------7--------44<--|
D|-4--------------------------------------------------44<--|

E|--------------------------------------------------------------|
B|--------------------------------------------------------------|
G|----4---6----------4---6----------4---6----------4---6-----4--|
D|------7---7-4-7------7---7-4-7------7---7-4-7------7---7-4----|
A|--------------------------------------------------------------|
D|-44-------------44-------------00-------------22--------------|

E|-----------------------------------------------------|
B|-----------------------------------------------------|
G|-----4---6---7-9-11-9-7-9-7-6-7-6-4-6-4---4^-6^------|
D|---4---7---7----------------------------7-------44<--|
A|------------------------------------------------44<--|
D|-4----------------------------------------------44<--|


^ - pinch harmonic
/ - slide down
. - palm mute
~ - vibrato
< - hold note

that's the song for you. it will be easier to figure out the song once we put it on our 
but good luck for now
Tap to rate this tab
 
# A B C D E F G H I J K L M N O P Q R S T U V W X Y Z