Song name
# A B C D E F G H I J K L M N O P Q R S T U V W X Y Z

Misc Unsigned Bands - Valintean - Lucky 13 tab

this is a song wrote by me and the band "Valintean", its called
lucky#13. anyway try this tab out, its still under construction
so to speak so if you have any ideas please comment............
.........rock on.     oh by the way if you have a phaser use it
 on this song its bad ass.

Key:/slide
    ^let off string
    *hammer on
  ___ let ring

e---0------0----3----5/-----------0----------------------------0------|
B----------2----5----7/-----------------------------------------------|
G-------------------------------------12^----12^---14-----------------|
D-----------------------------------------12--------------------------|
A---------------------------------------------------------------------|
E---------------------------------------------------------------------|


e---------------------------0-----------------------------0----------|
B--------------------------------------------------------------------|
G--12^------12^---10------------12^-----12^--14---12-----------------|
D-------12--------------------------12------------12-----------------|
A--------------------------------------------------------------------|
E--------------------------------------------------------------------|


e----------------------------0__________________---------------------|
B----------------------------2__________________---------------------|
G--12^-----12^---9-7-5*7/9-------------------------------------------|
D------12------------------------------------------------------------|
A--------------------------------------------------------------------|
E--------------------------------------------------------------------|


e-x---x----0_____--5---3--5/7----5--3---0___________---0-0------------|
B-x---x----2_____--7---4--7/9----7--4---2___________------------------|
G-x---x---------------------------------------------------------------|
D------------------------------------------------------------14-------|_____
A---------------------------------------------------------------------|
E---------------------------------------------------------------------|


e-------------0--0-0-----------------------0-0____________________-----|
B----------------------------------------------------------------------|
G----------------------------------------------------------------14----|
D___________/1--------12__________/14___---------12--14---15--14-------|
A----------------------------------------------------------------------|
E----------------------------------------------------------------------|


e-------------------0--0----0--0-0/3^-------------------------------0---|
B-------------------------------------------------------12----------0---|
G--14----12---14*18-------------------------------12---------12-----2---|
D---------------------------------------------------13--------------2---|
A----------------------------------------------12----------15---14------|
E------------------------------------------12----------14---------------|

thats what i got so far so tell me if you have any ideas thanx dudes.
Tap to rate this tab
# A B C D E F G H I J K L M N O P Q R S T U V W X Y Z