Song name
# A B C D E F G H I J K L M N O P Q R S T U V W X Y Z

Misc Unsigned Bands - Etheric - Talent Without Users tab

this is the song i wrote

e-0-4-0---0-4-0---0-4-0---0-4-0---0-~~~----|
b-------4-------4-------4-------4----------|   INTRO
g------------------------------------------|
d------------------------------------------|
a------------------------------------------|
e------------------------------------------|

e------------------------------------------------------|
b------------------------------------------------------|
g-----------55555555-----------------------------------|   Bridge- Heavy Distortion
d--22222222-55555555-55555555-77777777-----------------|         (digitech death metal)
a--22222222-33333333-55555555-77777777-----------------|
e--00000000----------33333333-55555555-----------------|

e--------------------------------------------|
b--------------------------------------------|
g-----------55555555-------------------------|
d--22222222-55555555-55555555-77777777-------|
a--22222222-33333333-55555555-77777777-------|
e--00000000----------33333333-55555555-------|

e--------------------------------------------|
b--------------------------------------------|
g-----------55555555-------------------------|
d--22222222-55555555-55555555-77777777-------|
a--22222222-33333333-55555555-77777777-------|
e--00000000----------33333333-55555555-------|

e--------------------------------------------|
b--------------------------------------------|
g-----------55555555-------------------------|
d--22222222-55555555-55555555-77777777~~~~~--|
a--22222222-33333333-55555555-77777777~~~~~--|
e--00000000----------33333333-55555555~~~~~--|

e---------------------------------------------|
a---------------------------------------------|
d--------------------5----------5-------------| X2
g-(Bass Part Than)-2-5--(bass)--5-7-----------|
b------------------2-3----------3-7-----------|
e------------------0--------------5-----------|


to be continued
Tap to rate this tab
 
# A B C D E F G H I J K L M N O P Q R S T U V W X Y Z