Song name
# A B C D E F G H I J K L M N O P Q R S T U V W X Y Z

Misc Unsigned Bands - Mrs Net - Mrs Net Song tab

-------------------------------------------------------------------------------
			     Mrs net song - Mrs net 
-------------------------------------------------------------------------------
Tabbed by:Nicolas Fleury
Email:tinicolas93@hotmail.com

Tuning:

e|-----0-----0-----3-----0-----0-----3-----0-----0-----5-----3-----1-----0---|
B|---------------------------------------------------------------------------|
G|---------------------------------------------------------------------------|
D|---------------------------------------------------------------------------|
A|---------------------------------------------------------------------------|
E|---------------------------------------------------------------------------|

e|-----1-----------------------1-----------------1-----------------3-----1---|
B|-----------3-----3-----3-----------3-----3-----------3-----3---------------|
G|---------------------------------------------------------------------------|
D|---------------------------------------------------------------------------|
A|---------------------------------------------------------------------------|
E|---------------------------------------------------------------------------|

e|-----0-----------0---------------------------------------------------------|
B|-----------3-----------1---------------------------------------------------|
G|---------------------------------------------------------------------------|
D|---------------------------------------------------------------------------|
A|---------------------------------------------------------------------------|
E|---------------------------------------------------------------------------|
Tap to rate this tab
# A B C D E F G H I J K L M N O P Q R S T U V W X Y Z