Song name
# A B C D E F G H I J K L M N O P Q R S T U V W X Y Z

Misc Unsigned Bands - Mass Minority - Ceacelia tab

Intro/Chous
-----------------
-----------------
-----------------
-6-66-8-88-333333  x6
-6-66-8-88-333333
-4-44-6-66-111111

Verse 1&2
-----------------
-----------------
6-66-------------
6-66-6-66-333333-  x4
4-44-6-66-333333-
-----4-44-111111-

Break
---------------------
---------------------
-----6-66------------
6-66-6-66-8-88-333333  x4
6-66-4-44-8-88-333333
4-44------6-66-111111

Verse 3 (No Guitar)
Repete Chorus

End chorus
----------------------
----------------------
----------------------
8-88-10-1010-666666--- x4
8-88-10-1010-666666---
6-66-8--8-8--444444---
Tap to rate this tab
# A B C D E F G H I J K L M N O P Q R S T U V W X Y Z