Song name
# A B C D E F G H I J K L M N O P Q R S T U V W X Y Z

Misc Unsigned Bands - No Turn On Red Nj - Cupcakes And Powerchords tab

-------------------------------------------------------------------------------
			     Cupcakes & Powerchords - No Turn On Red NJ
-------------------------------------------------------------------------------
Tabbed by: Jh8909
Email:jmanclan411@aol.com

Tuning: standard

e|---------------------------------------------------------------------------|
B|---------------------------------------------------------------------------|
G|---------------------------------------------------------------------------|
D|---------------------------------------------------------------------------|
A|--------9--------9--------7-------7-------6-------6-------4-------4-------6|
E|---7-7------7-7------7-7-----7-7-----4-4-----4-4-----4-4-----4-4-----6-6---|

e|---------------------------------------------------------------------------|
B|---------------------------------------------------------------------------|
G|---------------------------------------------------------------------------|
D|---------------------------------------------------------------------------|
A|-----6-------4-------4-------2-------2-------4-------4---------------------|
E|6-6-----4-4-----4-4-----2-2-----2-2-----2-2-----2-2------------------------|

Repeat: once, stop at E-2, A-2, don't do last two sets, and let ring.

| /  slide up
| \  slide down
| h  hammer-on
| p  pull-off
| ~  vibrato
| +  harmonic
| x  Mute note
===============================================================================
Tap to rate this tab
# A B C D E F G H I J K L M N O P Q R S T U V W X Y Z