Song name
# A B C D E F G H I J K L M N O P Q R S T U V W X Y Z

Misc Unsigned Bands - Out Of Area - Far Away Get Me There tab

INTRO
e|-----------------------------------------------------------------------------|
B|-----------------------------------------------------------------------------|
G|-----------------------------------------------------------------------------|
D|-----------------------------------------------------------------------------|
A|-----------------------------------------------------------------------------|
E|-12-12-12-12-10-10-10-10-9-9-9-9-10-10-10-10-12-12-12-12-10-10-10-10-9-9-9-9-|

e|----------------------------------------------------------------------------|
B|----------------------------------------------------------------------------|
G|----------------------------------------------------------------------------|
D|----------------------------------------------------------------------------|
A|----------------------------------------------------------------------------|
E|-10-10-10-10-7-7-7-7-10-10-10-10-9-9-9-9--9--9--7-7-7-7-10-10-10-10-9-9-9-9-|

BRIDGE
e|-------------------------------------------------------------------------------------|
B|-------------------------------------------------------------------------------------|
G|-------------------------------------------------------------------------------------|
D|-------------------------------------------------------------------------------------|
A|-14-14-14-14-12-12-12-12-11-11-11-11-12-12-12-12-14-14-14-14-12-12-12-12-11-11-11-11-|
E|-12-12-12-12-10-10-10-10--9--9--9--9-10-10-10-10-12-12-12-12-10-10-10-10--9--9--9--9-|

e|--------------------------------------------------------------------------------------|
B|--------------------------------------------------------------------------------------|
G|--------------------------------------------------------------------------------------|
D|--------------------------------------------------------------------------------------|
A|-12-12-12-12-9-9-9-9-12-12-12-12-11-11-11-11--11--11--9-9-9-9-12-12-12-12-11-11-11-11-|
E|-10-10-10-10-7-7-7-7-10-10-10-10--9--9--9--9---9---9--7-7-7-7-10-10-10-10--9--9--9--9-|

CHORUS
e|---------------------------------------------------------------------------------|
B|---------------------------------------------------------------------------------|
G|---------------------------------------------------------------------------------|
D|-11-11-11-11-11-11-11-11-----------------11-11-11-11-11-11-11-11-----------------|
A|--9--9--9--9--9--9--9--9-9-9-9-9-9-9-9-9--9--9--9--9--9--9--9--9-9-9-9-9-9-9-9-9-|
E|-------------------------7-7-7-7-7-7-7-7-------------------------7-7-7-7-7-7-7-7-|

e|--------------------------------------------------------------------------|
B|--------------------------------------------------------------------------|
G|--------------------------------------------------------------------------|
D|--------------------------------------------------------------------------|
A|-9-9-9-9-12-12-12-12-11-11-11-11--11--11--9-9-9-9-12-12-12-12-11-11-11-11-|
E|-7-7-7-7-10-10-10-10--9--9--9--9---9---9--7-7-7-7-10-10-10-10--9--9--9--9-|
Tap to rate this tab
# A B C D E F G H I J K L M N O P Q R S T U V W X Y Z