Song name
# A B C D E F G H I J K L M N O P Q R S T U V W X Y Z

Misc Unsigned Bands - Smashed Apart - Apathy tab

Intro: G1
|--------------------------------------------------------------|
|--------------------------------------------------------------|
|-4------------------------------2-----------------------------|
|-4------------------------------2-----------------------------|
|-2------------------------------0-----------------------------|
|--------------------------------------------------------------|

Intro: G2
|--------------------------------------------------------------|
|--------------------------------------------------------------|
|-4------------------------------2-----------------------------|
|-4-------4-5-4-2-4-5-4-2--------2-------2-4-2-0-2-4-2-0-------|
|-2-2-4-5-----------------5-4-2--0-0-2-4-----------------4-2-0-|
|--------------------------------------------------------------|
PM  . . . . . . . . . . . . . .    . . . . . . . . . . . . . .

Intro: G1
|--------------------------------------------------------------|
|--------------------------------------------------------------|
|-4------------------------------2-----------------------------|
|-4------------------------------2-----------------------------|
|-2------------------------------0-----------------------------|
|--------------------------------------------------------------|

Intro: G2
|--------------------------------------------------------------|
|--------------------------------------------------------------|
|-4------------------------------2-----------------------------|
|-4-------4-5-4-2-4-5-4-2--------2-------2-4-2-0-2-4-2-0-------|
|-2-2-4-5-----------------5-4-2--0-0-2-4-----------------4-2-0-|
|--------------------------------------------------------------|
PM  . . . . . . . . . . . . . .    . . . . . . . . . . . . . .

Intro: G1
|--------------------------------------------------------------|
|--------------------------------------------------------------|
|-4-4-4-4-4-4-4-4-4-4-4-4-4-4-4--2-2-2-2-2-2-2-2-2-2-2-2-7-7-7-|
|-4-4-4-4-4-4-4-4-4-4-4-4-4-4-4--2-2-2-2-2-2-2-2-2-2-2-2-x-x-x-|
|-2-2-2-2-2-2-2-2-2-2-2-2-2-2-2--0-0-0-0-0-0-0-0-0-0-0-0-5-5-5-|
|--------------------------------------------------------------|
PM  . . . . . . . . . . . . . .    . . . . . . . . . . .

Intro: G2
|--------------------------------------------------------------|
|--------------------------------------------------------------|
|-4------------------------------2-----------------------------|
|-4-------4-5-4-2-4-5-4-2--------2-------2-4-2-0-2-4-2-0-------|
|-2-2-4-5-----------------5-4-2--0-0-2-4-----------------4-2-0-|
|--------------------------------------------------------------|
PM  . . . . . . . . . . . . . .    . . . . . . . . . . . . . .

Intro: G1
|----------------------------------------------------------------|
|----------------------------------------------------------------|
|-4-4-4-4-4-4-4-4-4-4-4-4-4-4-4----------------------------------|
|-4-4-4-4-4-4-4-4-4-4-4-4-4-4-4--5-5-5-5-5-5-5-5-7-7-7-7-7-7-7-7-|
|-2-2-2-2-2-2-2-2-2-2-2-2-2-2-2--5-5-5-5-5-5-5-5-7-7-7-7-7-7-7-7-|
|--------------------------------5-5-5-5-5-5-5-5-7-7-7-7-7-7-7-7-|
PM  . . . . . . . . . . . . . .

Intro: G2
|--------------------------------------------------------------------------------|
|--------------------------------------------------------------------------------|
|-4------------------------------10-10-10-10-10-10-10-10-15-15-15-15-15-15-15-15-|
|-4-------4-5-4-2-4-5-4-2---------x--x--x--x--x--x--x--x--x--x--x--x--x--x--x--x-|
|-2-2-4-5-----------------5-4-2---8--8--8--8--8--8--8--8-13-13-13-13-13-13-13-13-|
|--------------------------------------------------------------------------------|
PM  . . . . . . . . . . . . . .

Verse: G1
e|-----------------------------------|
B|-----------------------------------|
G|-x-6~---x-4~---x-44444444-22222222-|
D|-x-6~---x-4~---x-44444444-22222222-|
A|-x-4~---x-2~---x-22222222-00000000-|
D|-----------------------------------|

Verse: G2
e|----------------------------------------------|
B|-77777777-55555555--99999999-1010101010101010-|
G|-xxxxxxxx-xxxxxxxx--xxxxxxxx--x-x-x-x-x-x-x-x-|
D|-44444444-22222222--66666666--7-7-7-7-7-7-7-7-|
A|----------------------------------------------|
D|----------------------------------------------|

Verse: G1
e|-----------------------------------|
B|-----------------------------------|
G|-x-6~---x-4~---x-44444444-22222222-|
D|-x-6~---x-4~---x-44444444-22222222-|
A|-x-4~---x-2~---x-22222222-00000000-|
D|-----------------------------------|

Verse: G2
e|----------------------------------------------|
B|-77777777-55555555--99999999-1010101010101010-|
G|-xxxxxxxx-xxxxxxxx--xxxxxxxx--x-x-x-x-x-x-x-x-|
D|-44444444-22222222--66666666--7-7-7-7-7-7-7-7-|
A|----------------------------------------------|
D|----------------------------------------------|

Verse: G1
e|----------------------------------------|
B|----------------------------------------|
G|-66666666-4444-2222---------------------|
D|-66666666-4444-2222--99999999-7777-6666-|
A|-44444444-2222-0000--99999999-7777-6666-|
D|---------------------99999999-7777-6666-|

Verse: G2
e|----------------------------------------|
B|----------------------------------------|
G|-66666666-4444-2222---------------------|
D|-66666666-4444-2222--99999999-7777-6666-|
A|-44444444-2222-0000--99999999-7777-6666-|
D|---------------------99999999-7777-6666-|

PreChorus: G1
e|---------------------------|
B|---------------------------|
G|---------------------------|
D|-2~--2/6-66666666-66666666-|
A|-2~--2/6-66666666-66666666-|
D|-2~--2/6-66666666-66666666-|
PM         ........

PreChorus: G2
e|---------------------------|
B|---------------------------|
G|---------------------------|
D|-2~--2/6-66666666-66666666-|
A|-2~--2/6-66666666-66666666-|
D|-2~--2/6-66666666-66666666-|
PM         ........

Chorus: G1
e|--------------------------------------|
B|--------------------------------------|
G|-66666666-----------------------------|
D|-66666666-22222222-55555555-4444-7777-|
A|-44444444-22222222-55555555-4444-7777-|
D|----------22222222-55555555-4444-7777-|

Chorus: G2
e|--------------------------------------|
B|--------------------------------------|
G|-66666666-----------------------------|
D|-66666666-22222222-55555555-4444-7777-|
A|-44444444-22222222-55555555-4444-7777-|
D|----------22222222-55555555-4444-7777-|

Chorus: G1
e|--------------------------------------|
B|--------------------------------------|
G|-66666666-----------------------------|
D|-66666666-22222222-55555555-4444-7777-|
A|-44444444-22222222-55555555-4444-7777-|
D|----------22222222-55555555-4444-7777-|

Chorus: G2
e|--------------------------------------|
B|--------------------------------------|
G|-66666666-----------------------------|
D|-66666666-22222222-55555555-4444-7777-|
A|-44444444-22222222-55555555-4444-7777-|
D|----------22222222-55555555-4444-7777-|

PreVerse: G1
e|-------------------------------------------------|
B|-------------------------------------------------|
G|-------------------------------------------------|
D|-2-xx2-xx2-xx2-xx-0000-----2-xx2-xx2-xx2-xx-5555-|
A|-2-xx2-xx2-xx2-xx-0000-----2-xx2-xx2-xx2-xx-5555-|
D|-2-xx2-xx2-xx2-xx-0000-----2-xx2-xx2-xx2-xx-5555-|

PreVerse: G1
e|----------------------------------------------------|
B|-10--10--10--10--12121212--10--10--10--10--14141414-|
G|--x---x---x---x---x-x-x-x---x---x---x---x---x-x-x-x-|
D|--7---7---7---7---9-9-9-9---7---7---7---7--11111111-|
A|----------------------------------------------------|
D|----------------------------------------------------|

Verse: G1
e|-------------------------------------------------------------------------------|
B|-------------------------------------------------------------------------------|
G|-6-6666666-6666-666--4-4444444-4444-222--6-6666666-6666-666--44444444-4444-999-|
D|-6-6666666-6666-666--4-4444444-4444-222--6-6666666-6666-666--44444444-4444-xxx-|
A|-4-4444444-4444-444--2-2222222-2222-000--4-4444444-4444-444--22222222-2222-777-|
D|-------------------------------------------------------------------------------|
PM   ....... ....        ....... ....        ....... ....

Verse: G2
e|-------------------------------------------------------------------------------|
B|---------------------------------------------------------------------------555-|
G|-6-6666666-6666-666--4-4444444-4444-222--6-6666666-6666-666--44444444-4444-xxx-|
D|-6-6666666-6666-666--4-4444444-4444-222--6-6666666-6666-666--44444444-4444-222-|
A|-4-4444444-4444-444--2-2222222-2222-000--4-4444444-4444-444--22222222-2222-----|
D|-------------------------------------------------------------------------------|
PM   ....... .... ...    ....... ....        ....... ....

PreChorus: G1
e|-----------------\S\------|
B|------------------\L\-----|
G|-------------------\I\----|
D|-7~--7/2--2-2-2~----\D\---|
A|-7~--7/2--2-2-2~-----\E\--|
D|-7~--7/2--2-2-2~------\!\-|

PreChorus: G2
e|---------|
B|---------|
G|---------|
D|-7~--7/2-|
A|-7~--7/2-|
D|-7~--7/2-|

Chorus: G1 (4x)
e|--------------------------------------|
B|--------------------------------------|
G|-66666666-----------------------------|
D|-66666666-22222222-55555555-4444-7777-|
A|-44444444-22222222-55555555-4444-7777-|
D|----------22222222-55555555-4444-7777-|

Chorus: G2 (4x)
e|--------------------------------------|
B|--------------------------------------|
G|-66666666-----------------------------|
D|-66666666-22222222-55555555-4444-7777-|
A|-44444444-22222222-55555555-4444-7777-|
D|----------22222222-55555555-4444-7777-|

Bridge: G1
e|----------------------------------------------------|
B|----------------------------------------------------|
G|-6---6---6---6-------------4---4---4---4------------|
D|-6---6---6---6----------6--4---4---4---4----------5-|
A|-4---4---4---4----4-6-7----2---2---2---2----2-4-5---|
D|----------------------------------------------------|

Bridge: G2
e|----------------------------------------------------|
B|----------------------------------------------------|
G|-6-xx6-xx6-xx6-xx----------4-xx4-xx4-xx4-xx---------|
D|-6-xx6-xx6-xx6-xx----------4-xx4-xx4-xx4-xx---------|
A|-4-xx4-xx4-xx4-xx----------2-xx2-xx2-xx2-xx---------|
D|----------------------------------------------------|

Bridge: G1
e|-----------------------------------------------------|
B|-----------------------------------------------------|
G|-6---6---6---6-------------9---9---9---9-------------|
D|-6---6---6---6----------6--9---9---9---9-----------7-|
A|-4---4---4---4----4-6-7----7---7---7---7----7-9-10---|
D|-----------------------------------------------------|

Bridge: G2
e|-----------------------------------------------------|
B|-----------------------------------------------------|
G|-6-xx6-xx6-xx6-xx----------9-xx9-xx9-xx9-xx----------|
D|-6-xx6-xx6-xx6-xx----------9-xx9-xx9-xx9-xx----------|
A|-4-xx4-xx4-xx4-xx----------7-xx7-xx7-xx7-xx----------|
D|-----------------------------------------------------|

Solo: G1
e|----------------------------------------------------------------|
B|----------------------------------------------------------------|
G|----------------------------------------------------------------|
D|-0~------------------------------0~-----------------------------|
A|-0~------------------------------0~-----------------------------|
D|-0~------------------------------0~-----------------------------|

Solo: G2
e|----------------------------------------------------------------|
B|-/17------------------13-10------/17------------------13-10-----|
G|----14-----------10-12-----12-9-----14-----------10-12-----12-9-|
D|------15-14-12-10---------------------15-14-12-10---------------|
A|----------------------------------------------------------------|
D|----------------------------------------------------------------|

Solo: G1
e|---------------------------------------------------------------------------|
B|---------------------------------------------------------------------------|
G|---------------------------------------------------------------------------|
D|-0~------------------------------0~-------------------------------------0~-|
A|-0~------------------------------0~-------------------------------------0~-|
D|-0~------------------------------0~-------------------------------------0~-|

Solo: G2
e|--------------------------------------10-13-12-----------------------------|
B|-/17------------------13-10-------------------13-10--10-----10-------------|
G|----14-----------10-12-----12-9-----10-----------------10-12---12-10-9~----|
D|------15-14-12-10----------------/12---------------10-------------------0~-|
A|------------------------------------------------------------------------0~-|
D|------------------------------------------------------------------------0~-|

G1 - SLIDE!

Chorus: G1 (4x)
e|--------------------------------------|
B|--------------------------------------|
G|-66666666-----------------------------|
D|-66666666-22222222-55555555-4444-7777-|
A|-44444444-22222222-55555555-4444-7777-|
D|----------22222222-55555555-4444-7777-|

Chorus: G2 (4x)
e|--------------------------------------|
B|--------------------------------------|
G|-66666666-----------------------------|
D|-66666666-22222222-55555555-4444-7777-|
A|-44444444-22222222-55555555-4444-7777-|
D|----------22222222-55555555-4444-7777-|

Outro: G1
e|--------------------------------------------|
B|--------------------------------------------|
G|-----------------------------------------6~-|
D|-2/5--5\4--4/7--5-4---2/5--5\4--4/7--5-4-6~-|
A|-2/5--5\4--4/7--5-4---2/5--5\4--4/7--5-4-4~-|
D|-2/5--5\4--4/7--5-4---2/5--5\4--4/7--5-4----|

Outro: G2
e|-----------------------------------------7~-|
B|-----------------------------------------7~-|
G|-----------------------------------------x~-|
D|-2/5--5\4--4/7--5-4---2/5--5\4--4/7--5-4-4~-|
A|-2/5--5\4--4/7--5-4---2/5--5\4--4/7--5-4----|
D|-2/5--5\4--4/7--5-4---2/5--5\4--4/7--5-4----|
Tap to rate this tab
 
# A B C D E F G H I J K L M N O P Q R S T U V W X Y Z