Song name
# A B C D E F G H I J K L M N O P Q R S T U V W X Y Z

Misc Unsigned Bands - Heroes In Error - Thats Why Pornstars Wear Goggles tab

www.myspace.com/heroesinerror


YEAHHHHH AHHAHAA

*= pinch
/\ = slide
too lazy to put in palm mutes
:D



  Intro x 9
6 |------------------------------------------------|
5 |---6--6-6--6--6-6--6--6-6--6--6-6---------------|
4 |--9-9--9--9-9--9--9-9--9--9-9--9----------------|
3 |-0---0---0---0---8---8---7---7------------------|
2 |------------------------------------------------|
1 |------------------------------------------------|

break

6 |------------------------------------------------|
5 |----------------------------------------11-11-11|
4 |----------------------------------------14-14-14|
3 |-0----------------------------------------------|
2 |-0----------------------------------------------|
1 |-0----------------------------------------------|

break down X 8

6 |-------------------------------------------------------|
5 |-------------------11---11-------------------11---1111-|
4 |-------------------14---14-------------------14---1414-|
3 |-------------------------------------------------------|
2 |-------------------------------------------------------|
1 |-0-0-0-0-00000-0-0----0----0-0-0-0-00000-0-0----0------|

break 

6 |------------------------------------------------|
5 |------------------------------------------------|
4 |------------------------------------------------|
3 |-0----------------------------------------------|
2 |-0----------------------------------------------|
1 |-0----------------------------------------------|

verse X 6

6 |------------------------------------------------|
5 |------------------------------------------------|
4 |--------------------------------------10109-9---|
3 |-0-00-3-2-0-----------0-7-10-0-00-3-2-x-x-x-x---|
2 |-0-00-3-2-0-00-0-7-10--------0-00-3-2-8-8-7-7---|
1 |-0-00-3-2-0-00---------------0-00-3-2-----------|

Prechorus x 4

6 |------------------------------------------------|
5 |------------------------------------------------|
4 |------------------------------------------------|
3 |------------------------------------------------|
2 |-0-0-0-0---000---000-0-0-0-108-7-7-8-10-7*------|
1 |-0-0-0-0---000---000-0-0-0-108-7-7-8-10---------|

Chorus X 2

6 |------------------------------------------------|
5 |------------------------------------------------|
4 |-7-7-7-7-10109-9-14-14-14-14-12-12-109----------|
3 |-X-X-X-X-X-X-X-X-X--X--X--X--X--X--X-X----------|
2 |-5-5-5-5-8-8-7-7-12-12-12-12-10-10-8-7----------|
1 |------------------------------------------------|

Verse 6

6 |------------------------------------------------|
5 |------------------------------------------------|
4 |--------------------------------------10109-9---|
3 |-0-00-3-2-0-----------0-7-10-0-00-3-2-x-x-x-x---|
2 |-0-00-3-2-0-00-0-7-10--------0-00-3-2-8-8-7-7---|
1 |-0-00-3-2-0-00---------------0-00-3-2-----------|

Break down 4

6 |------------------------------------------------|
5 |------------------------------------------------|
4 |------------------------------------------------|
3 |------------------------------------------------|
2 |-0-0-0-0---000---000-0-0-0-108-7-7-8-10-7*------|
1 |-0-0-0-0---000---000-0-0-0-108-7-7-8-10---------|

Bridge X 3

6 |------------------------------------------------|
5 |------------------------------------------------|
4 |-2----------------------------------------------|
3 |-2-------3---3-2-0-0-0---------0-0-0------------|
2 |-0-3\5/3-3---3-2-0-0-0-----5---0-0-0-----565----|
1 |---------3---3-2-0-0-0-5-6---6-0-0-0-5-6--------|

Chorus X 2

6 |------------------------------------------------|
5 |------------------------------------------------|
4 |-7-7-7-7-10109-9-14-14-14-14-12-12-109----------|
3 |-X-X-X-X-X-X-X-X-X--X--X--X--X--X--X-X----------|
2 |-5-5-5-5-8-8-7-7-12-12-12-12-10-10-8-7----------|
1 |------------------------------------------------|

break X 4

6 |------------------------------------------------|
5 |------------------------------------------------|
4 |------------------------------------------------|
3 |-0-0-0-0-00000-0-0-0----------------------------|
2 |-0-0-0-0-00000-0-0-0----------------------------|
1 |-0-0-0-0-00000-0-0-0----------------------------|

Breakdown X 8

6 |------------------------------------------------|
5 |------------------------------------------------|
4 |---------------------7--------------------------|
3 |-0-0-0-0-00000-0-0-006--------------------------|
2 |-0-0-0-0-00000-0-0-005--------------------------|
1 |-0-0-0-0-00000-0-0-00---------------------------|


Ending

6 |------------------------------------------------|
5 |------------------------------------------------|
4 |------------------------------------------------|
3 |-0-0-0-0----------------------------------------|
2 |-0-0-0-0----------------------------------------|
1 |-0-0-0-0----------------------------------------|

Tap to rate this tab
# A B C D E F G H I J K L M N O P Q R S T U V W X Y Z