Song name
# A B C D E F G H I J K L M N O P Q R S T U V W X Y Z

Misc Unsigned Bands - Love Machine - Goodbye tab

Help us improve GuitareTab! Take a short survey!
----------------------------------------------------------------------------
			     Goodbye - Love Machine
----------------------------------------------------------------------------
Tuning:Standard

Intro
e|------------------------------------------------------------------------|
B|------------------------------------------------------------------------|
G|------------------------------------------------------------------------|
D|---2-2-2-2-2-2-2-2-2-2-2-2-2-2-2-2--0-0-0-0-0-0-0-0-0-0-0-0-0-0-0-0-----|x4
A|---2-2-2-2-2-2-2-2-2-2-2-2-2-2-2-2--0-0-0-0-0-0-0-0-0-0-0-0-0-0-0-0-----|
E|---0-0-0-0-0-0-0-0-0-0-0-0-0-0-0-0--3-3-3-3-3-3-3-3-3-3-3-3-3-3-3-3-----|

Chorus
e|--------------------------------------------------------------------------|
B|--------------------------------------------------------------------------|
G|--------------------------------------------------------------------------|
D|--3--3--3--3--3-3--2--2--2--2--2-2--0--0--0--0--0-0--2--2--2--2-2---------|
A|--3--3--3--3--3-3--2--2--2--2--2-2--0--0--0--0--0-0--2--2--2--2-2---------|
E|--1--1--1--1--1-1--0--0--0--0--0-0--3--3--3--3--3-3--0--0--0--0-0---------|

Solo
e|---------------------------------------------------------------------------|
B|---------------------------------------------------------------------------|
G|-------------------------------------------12------------------------------|
D|--------------------------------------12-14--14-12~~~----------------------|
A|---------12----------12b~~~~r~~~--12---------------------------------------|
E|-12--15------12--15--------------------------------------------------------|

    /w bar
     +1
     /\
    /  \
e|------------15-12---------------------------------------------------------|
B|--15---------------15--12--14-~-14-~-14-~-14-~-\--------------------------|
G|--12----------------------------------------------------------------------|
D|--------------------------------------------------------------------------|
A|--------------------------------------------------------------------------|
E|--------------------------------------------------------------------------|

Intro/Verse x4
Chorus x1
Intro/Verse x4
Chorus x1
Solo x1
Chorus x1
Intro/verse x1

| /  slide up
| \  slide down
| h  hammer-on
| p  pull-off
| ~  vibrato
| +  harmonic
| x  Mute note
============================================================================
Related for Love Machine - Goodbye tab