Song name
# A B C D E F G H I J K L M N O P Q R S T U V W X Y Z

Misc Unsigned Bands - Breaking Silence - New Song tab

                            BREAKING SILENCE

                  -SOME NEW SONG THAT ISN'T NAMED YET-

CT Here - here's the new song

Standard tuning (eBGDAE)

ROCK ON

     main riff
e------------------------------------------|
B------------------------------------------|
G------------------------------------------|
D-11--11--xxxx-6-6-xx-7--7-xxxx-9-9-xx-----|
A-11--11--xxxx-6-6-xx-7--7-xxxx-9-9-xx-----|
E-9---9---xxxx-4-4-xx-5--5-xxxx-7-7-xx-----|
     X = rake                        REPEAT 6 TIMES

     verse 1 (all palm-muted) \\\X = Pick slide/scrape
e-----------------------------------------|
B-----------------------------------------|
G-----------------------------------------|
D-----------11-------11-------6-------6---|
A-----------11-------11-------6-------6---|
E-\\\X--9-9-9--9-9-9-9--9-4-4-4-4-4-4-4-4-|
      PM.................................
                                             repeat 4 times
e-------------------------------------|
B-------------------------------------|
G-------------------------------------|
D-----7-------7-------7---------------|
A-----7-------7-------7---------------|
E-5-5-5-5-5-5-5-5-5-5-5-5-5-7-7-------|
PM.............................

     PRE-CHORUS
e------------------------|
B------------------------|
G------------------------|
D--4~----2~----9~--------|   repeat
A--4~----2~----9~--------|
E--2~----0~----7~--------|

     CHORUS
e---------------------------------------|
B---------------------------------------|
G-6-6-6---------------------------------|
D-6-6-6-6-6-6-6-7-7-7-7-9-9-9-9-xx------|  repeat 4 times
A-4-4-4-6-6-6-6-7-7-7-7-9-9-9-9-xx------|
E-------4-4-4-4-5-5-5-5-7-7-7-7-xx------|

      repeat everything again (see bottom if confused)

     SOLO (rhythm plays chorus)
e-4-------------------4-------------------|
B-----4----5----7---------4----5-4--------|
G----------------------------------6------|
D-----------------------------------------|
A-----------------------------------------|
E-----------------------------------------|

e-4-------------------4--5-4--5-4---------|
B-----4----5----7-------------------------|
G-----------------------------------------|
D-----------------------------------------|
A-----------------------------------------|
E-----------------------------------------|

 here's the tapping part:

   T       T       T       T       T       T       T       T
e--12p9h11-12p9h11-12p9h11-12p9h11-12p9h11-12p9h11-12p9h11-12p9h11-|
B------------------------------------------------------------------|
G------------------------------------------------------------------|
D------------------------------------------------------------------|
A------------------------------------------------------------------|
E------------------------------------------------------------------|

   T       T       T       T       T       T       T       T
e--12p7h11-12p7h11-12p7h11-12p7h11-12p7h11-12p7h11-12p7h11-12p7h11-|
B------------------------------------------------------------------|
G------------------------------------------------------------------|
D------------------------------------------------------------------|
A------------------------------------------------------------------|
E------------------------------------------------------------------|
      repeat that again

  then this:

   T       T       T        T        T        T
e--12p9h11-12p9h11-14p11h13-14p11h13-16p13h15-16p13h15-|
B------------------------------------------------------|
G------------------------------------------------------|
D------------------------------------------------------|
A------------------------------------------------------|
E------------------------------------------------------|

   T        T        T        T        T        T        T        T
e--17p14h16-17p14h16-18p14h16-18p14h16-19p14h16-19p14h16-20p14h16-20p14h16-|
B--------------------------------------------------------------------------|
G--------------------------------------------------------------------------|
D--------------------------------------------------------------------------|
A--------------------------------------------------------------------------|
E--------------------------------------------------------------------------|

e-22brbr----|
B-----------|
G-----------|
D-----------|
A-----------|
E-----------|


               -[SONG PATTERN]-
                from beginning
                -main riff x6
                -verse x4
                -pre-chorus x2
                -chorus x4
                -main riff x4
                -verse x4
                -pre-chorus x2
                -chorus x4
                -solo
                THEN FOR THE FINAL CHORUS
                -chorus x8 for rhythm
                -chorus x4 - main riff x4 for lead
Tap to rate this tab
 
# A B C D E F G H I J K L M N O P Q R S T U V W X Y Z