Song name
# A B C D E F G H I J K L M N O P Q R S T U V W X Y Z

Misc Unsigned Bands - Beyond Animator - In My Name tab

Help us improve GuitareTab! Take a short survey!
* = Palm Mute
/ = Slide
(PS) = Pick Slide


Beyond Animator - In My Name


Intro: -

e-------------|-------------|-------------|-------------|
A-------------|-------------|-------------|-------------|
D--7-7--6--5--|--7-7--6--5--|--7-7--6--5--|--7-7--6--5--|
G--7-7--6--5--|--7-7--6--5--|--7-7--6--5--|--7-7--6--5--|
B--5-5--4--3--|--5-5--4--3--|--5-5--4--3--|--5-5--4--3--|
E-------------|-------------|-------------|-------------|
   * *  *  *     * *  *  *     

e-------------|-------------|-------------|-------------|
A-------------|-------------|-------------|-------------|
D--7-7--6--5--|--7-7--6--5--|--7-7--6--5--|--7-7--6--5--|
G--7-7--6--5--|--7-7--6--5--|--7-7--6--5--|--7-7--6--5--|
B--5-5--4--3--|--5-5--4--3--|--5-5--4--3--|--5-5--4--3--|
E-------------|-------------|-------------|-------------|
   * *  *  *     * *  *  *     * *  *  *     * *  *  * 

e----------------------------------|
B----------------------------------|
D--7--7-7--6-6-6--5-5-5-5-5-5-5-5--|
G--7--7-7--6-6-6--5-5-5-5-5-5-5-5--|   X 8
B--5--5-5--4-4-4--3-3-3-3-3-3-3-3--|
E----------------------------------|

e----------------------------------|
B----------------------------------|
D--7--7-7--2--2-2--5--5-5--8--8-8--|
G--7--7-7--2--2-2--5--5-5--8--8-8--|   X 4
B--5--5-5--0--0-0--3--3-3--6--6-6--|
E----------------------------------|

Verse 1 : -

e-------------------------|---------------------|
B-------------------------|---------------------|
G-------------------------|--7------------------|
D--7----------------------|--7------------------| 
A--7----(Strum once)------|--5----(Strum once)--|
E--5----------------------|---------------------|

e----------------------------------|
B----------------------------------|
D--7--7-7--6-6-6--5-5-5-5-5-5-5-5--|
G--7--7-7--6-6-6--5-5-5-5-5-5-5-5--|   X 2  
B--5--5-5--4-4-4--3-3-3-3-3-3-3-3--|
E----------------------------------|

e-------------------------|---------------------|
B-------------------------|---------------------|
G-------------------------|--7------------------|
D--7----------------------|--7------------------| 
A--7----(Strum once)------|--5----(Strum once)--|
E--5----------------------|---------------------|

e----------------------------------|
B----------------------------------|
D--7--7-7--6-6-6--5-5-5-5-5-5-5-5--|
G--7--7-7--6-6-6--5-5-5-5-5-5-5-5--|   X 4  
B--5--5-5--4-4-4--3-3-3-3-3-3-3-3--|
E----------------------------------|

Pre-Chorus: -

e----------------------------------|
B----------------------------------|
G--7--7-7--8--8-8--7--7-7--4/-5-5--|
D--7--7-7--8--8-8--7--7-7--4/-5-5--|   X 4
A--5--5-5--6--6-6--5--5-5--2/-3-3--|
E----------------------------------|

e---------------------------------|
B---------------------------------|
G--4----4----4--------------------|
D--4----4----4--------------------|
A--2----2----2-------(PS)---------|
E---------------------------------|

Chorus: -

e------------------------------------------|
B------------------------------------------|
G--4/-5-5-5--4/-5-5-5--4/-5-5-5--4/-5-7-5--|
D--4/-5-5-5--4/-5-5-5--4/-5-5-5--4/-5-7-5--|   X 4
A--2/-3-3-3--2/-3-3-3--2/-3-3-3--2/-3-5-3--|
E------------------------------------------|

Post-Chorus: -

e----------------------------------|
B----------------------------------|
D--7--7-7--6-6-6--5-5-5-5-5-5-5-5--|
G--7--7-7--6-6-6--5-5-5-5-5-5-5-5--|   X 4
B--5--5-5--4-4-4--3-3-3-3-3-3-3-3--|
E----------------------------------|

Verse 2 : -

e-------------------------|---------------------|
B-------------------------|---------------------|
G-------------------------|--7------------------|
D--7----------------------|--7------------------| 
A--7----(Strum once)------|--5----(Strum once)--|
E--5----------------------|---------------------|

e----------------------------------|
B----------------------------------|
D--7--7-7--6-6-6--5-5-5-5-5-5-5-5--|
G--7--7-7--6-6-6--5-5-5-5-5-5-5-5--|   X 2  
B--5--5-5--4-4-4--3-3-3-3-3-3-3-3--|
E----------------------------------|

e-------------------------|---------------------|
B-------------------------|---------------------|
G-------------------------|--7------------------|
D--7----------------------|--7------------------| 
A--7----(Strum once)------|--5----(Strum once)--|
E--5----------------------|---------------------|

e----------------------------------|
B----------------------------------|
D--7--7-7--6-6-6--5-5-5-5-5-5-5-5--|
G--7--7-7--6-6-6--5-5-5-5-5-5-5-5--|   X 4  
B--5--5-5--4-4-4--3-3-3-3-3-3-3-3--|
E----------------------------------|

Pre-Chorus: -

e----------------------------------|
B----------------------------------|
G--7--7-7--8--8-8--7--7-7--4/-5-5--|
D--7--7-7--8--8-8--7--7-7--4/-5-5--|   X 4
A--5--5-5--6--6-6--5--5-5--2/-3-3--|
E----------------------------------|

e---------------------------------|
B---------------------------------|
G--4----4----4--------------------|
D--4----4----4--------------------|
A--2----2----2-------(PS)---------|
E---------------------------------|

Chorus: -

e------------------------------------------|
B------------------------------------------|
G--4/-5-5-5--4/-5-5-5--4/-5-5-5--4/-5-7-5--|
D--4/-5-5-5--4/-5-5-5--4/-5-5-5--4/-5-7-5--|   X 4
A--2/-3-3-3--2/-3-3-3--2/-3-3-3--2/-3-5-3--|
E------------------------------------------|

Post-Chorus: -

e----------------------------------|
B----------------------------------|
D--7--7-7--6-6-6--5-5-5-5-5-5-5-5--|
G--7--7-7--6-6-6--5-5-5-5-5-5-5-5--|   X 4
B--5--5-5--4-4-4--3-3-3-3-3-3-3-3--|
E----------------------------------|

Breakdown: -

e--------------------------------------------------------------|
B--------------------------------------------------------------|
G--------------------------------------------------------------|
D--9--9-9--9-9-9--8--8-8--8-8-8--------------------------------|   X 5
A--------------------------------9--9-9--9-9-9--7--7-7--7-7-7--|   
E--------------------------------------------------------------|

Breakdown to Pre-Chorus Riff: -

e----------------------------------|
B----------------------------------|
G--7--X-X--8--X-X--7--X-X--4/-5-5--|
D--7--X-X--8--X-X--7--X-X--4/-5-5--|   X 2
A--5--X-X--6--X-X--5--X-X--2/-3-3--|
E----------------------------------|

Pre-Chorus: -

e----------------------------------|
B----------------------------------|
G--7--7-7--8--8-8--7--7-7--4/-5-5--|
D--7--7-7--8--8-8--7--7-7--4/-5-5--|   X 4
A--5--5-5--6--6-6--5--5-5--2/-3-3--|
E----------------------------------|

Go straight into chorus riff instead of playing (X244XX) and the (PS).

Chorus: -

e------------------------------------------|
B------------------------------------------|
G--4/-5-5-5--4/-5-5-5--4/-5-5-5--4/-5-7-5--|
D--4/-5-5-5--4/-5-5-5--4/-5-5-5--4/-5-7-5--|   X 4
A--2/-3-3-3--2/-3-3-3--2/-3-3-3--2/-3-5-3--|
E------------------------------------------|

Post-Chorus: -

e----------------------------------|
B----------------------------------|
D--7--7-7--6-6-6--5-5-5-5-5-5-5-5--|
G--7--7-7--6-6-6--5-5-5-5-5-5-5-5--|   X 4
B--5--5-5--4-4-4--3-3-3-3-3-3-3-3--|
E----------------------------------|

Guitar Solo (Improvised): -


Just bend strings in the region of 2nd to 4th fret on "e", "B" and "G".

e--X-X--X---(bend strings here with--X-X--X-X---(bend strings here with--|
B--X-X--X----your hand covering all--X-X--X-X----your hand covering all--|
G--X-X--X----frets between 2 and 4)--X-X--X-X----frets between 2 and 4)--|
D--X-X--X----------------------------X-X--X-X----------------------------|
A--X-X--X----------------------------X-X--X-X----------------------------|
E--X-X--X----------------------------X-X--X-X----------------------------|

(( Repeat this 4 times ))


Verse 3 : - (all screamed)

e----------------------------------|
B----------------------------------|
D--7--7-7--6-6-6--5-5-5-5-5-5-5-5--|
G--7--7-7--6-6-6--5-5-5-5-5-5-5-5--|   X 8  
B--5--5-5--4-4-4--3-3-3-3-3-3-3-3--|
E----------------------------------|

Outro: -

e----------------------------------|
B----------------------------------|
D--7--7-7--6-6-6--5-5-5-5-5-5-5-5--|
G--7--7-7--6-6-6--5-5-5-5-5-5-5-5--|   X 4  
B--5--5-5--4-4-4--3-3-3-3-3-3-3-3--|
E----------------------------------|


(( END ))
Related for Beyond Animator - In My Name tab