Song name
# A B C D E F G H I J K L M N O P Q R S T U V W X Y Z

Misc Unsigned Bands - Hopkins Academy Jazz Band - Mask Of The Chili Pepper tab

“Mask of the Chili Pepper” - Guitar Solo

h = hammer on
p = pull off					   ~235 bpm

e|--------------------------------------------------------|
B|-------1-2-4-2-1-2-1-----------2-4-6-7-9-7-6-7-6-6----7-|
G|-3-------------------1-1h3------------------------------|
D|--------------------------------------------------------|
A|--------------------------------------------------------|
E|--------------------------------------------------------|

e|-6-8-9-8-6-8h9p8-6-8-9---11-9-8-6-8h9p8---6-------------|
B|--------------------------------------------7-6-6-6-----|
G|--------------------------------------------------------|
D|--------------------------------------------------------|
A|--------------------------------------------------------|
E|--------------------------------------------------------|

e|-----6-8-9-9-9-11-9-8-6-6-6---6-8-6---------------------|
B|-6-7--------------------------------7-6-6-7-9-7-6-------|
G|--------------------------------------------------------|
D|--------------------------------------------------------|
A|--------------------------------------------------------|
E|--------------------------------------------------------|
Tap to rate this tab
# A B C D E F G H I J K L M N O P Q R S T U V W X Y Z