Guitaretab - guitar tabs
Song name
# A B C D E F G H I J K L M N O P Q R S T U V W X Y Z

Misc Unsigned Bands - Invasion Band - How Do I Say I Love You tab

INTRO/Verse 1

E|------------------------------------------------------0--------------------|
B|------0----------------------3------1--------------------------------------|
G|----------2------------------0------0-----0---------------------0h2p0------|
D|-------------0-----------------------------------2---------0h2----------0--|
A|-----------------0h2--------2------3---------------------------------------|
E|------3--------------------------------------------------------------------|


E|---------------------------------------------------------------|
B|------0----------------------3------1------3----5--------5-----|
G|----------2------------------0------0------0----5-----------5--|
D|-------------0-------------------------------------------------|
A|-----------------0h2--------2------3------3----3---3-----------|
E|------3--------------------------------------------------------|

Verse1
Take a look at his hands and his feet
See the tears in his eyes tell me what do you see
Just look at the crown on his head
Its not made of gold but of thorns instead


Verse 2
E|------------------------------------------------------0--------------------|
B|------0----------------------3------1--------------------------------------|
G|----------2------------------0------0-----0---------------------0h2p0------|
D|-------------0-----------------------------------2---------0h2----------0--|
A|-----------------0h2--------2------3---------------------------------------|
E|------3--------------------------------------------------------------------|
Note: after the C u can make variations with the hammer ons

Verse2
His beard has been torn from his face
Still shining with mercy and grace
But he still loves us all the same
As he hung on the cross without blame

______________________________________________________________
PRE CHORUS

E|----------------------------------------------------------|
B|------------------------3-----3-------------------0----0--|
G|---------------5-------5-----5-------------------0----0---|
D|-----------5-----------5--------------------2----2--------|
A|------3----------------3----------------2-----------------|
E|--------------------------------------0-----------0-------|

E|-----------------------------------------------------0-----|
B|----------------------1----1------------------------3---3--|
G|----------------- 0--------0------0------0---------2---2---|
D|--------------2-----------2---2----------2-----------------|
A|----------3---------------3--------------2-----------------|
E|---------------------------------------0-------------------|

E|----------------------------------------------------------|
B|------------------------3-----3-------------------0----0--|
G|---------------5-------5-----5-------------------0----0---|
D|-----------5-----------5--------------------2----2--------|
A|------3----------------3----------------2-----------------|
E|--------------------------------------0-----------0-------|


E|-----------------------------------------------------------0-------|
B|--------------------------1-----1---------------------3-----3------|
G|----------------- 0------0-----0------0----------2------------2----|
D|--------------2----------2------2---2--------0------------------0--|
A|----------3--------------3------3----------------------------------|
E|-------------------------------------------------------------------|


Pre Chorus

Cadd9 Em  |C Em D| Cadd9 Em | C D

Oh wat kind of man do u see
The kind that still loves you and me
Oh and what kind of love is so true
That he gave up his life just for you

_______________________________________________________________
Chorus
[ Tab from: http://www.guitaretab.com/m/misc-unsigned-bands/92295.html ]
E|------------------------------------------------------0-------------------|
B|------0----------------------3------1-------------------------------------|
G|----------2------------------0------0-----0---------------------0h2p0-----|
D|-------------0-----------------------------------2---------0h2----------0-|
A|-----------------0h2--------2------3--------------------------------------|
E|------3-------------------------------------------------------------------|

E|------------------------------------------------------0-------------------|
B|------0----------------------3------1-------------------------------------|
G|----------2------------------0------0-----0---------------------0h2p0-----|
D|-------------0-----------------------------------2---------0h2----------0-|
A|-----------------0h2--------2------3--------------------------------------|
E|------3-------------------------------------------------------------------|


E|------------------------------------------------------------------------|
B|---------1-----1-----1-----0---0-----2--2-------------------------------|
G|---------0-----0-----0-----0---0-----2--2-------------------------------|
D|---------2-----2-----2-----2---2-----2--2-------------------------------|
A|----3----------0-----------2--------------------------------------------|
E|------------------------------------------------------------------------|

E|-------------------------0--------------------0-------------------------|
B|-------------------1----1--------------3-----3--------------------------|
G|--------------0---0-----------------2--------2--------------------------|
D|----------2----------------------0--------------------------------------|
A|------3-----------------------------------------------------------------|
E|------------------------------------------------------------------------|

Tell me how do I say I love you
Can you show me the way that you care
If he knocked on your door would it open
Can you hear what god wants to say

E|------------------------------------------------------0-------------------|
B|------0----------------------3------1-------------------------------------|
G|----------2------------------0------0-----0---------------------0h2p0-----|
D|-------------0-----------------------------------2---------0h2----------0-|
A|-----------------0h2--------2------3--------------------------------------|
E|------3-------------------------------------------------------------------|

E|--------------------------------------------------------------------------|
B|------0----------------------3------1------3------4---4-------------------|
G|----------2------------------0------0------0------4---4-------------------|
D|-------------0--------------------------------------4---------------------|
A|-----------------0h2--------2------3------3------2------------------------|
E|------3-------------------------------------------------------------------|

G Bm C| G Bm C B|
Tell me how do u say I love you
Can u show me the way that you care.
_____________________________________________________________________
Bridge

 Eadd9  Eadd9/D#    Dadd9   D7/C#
E|----------x-----------x-------------x-----------x----------------|
B|----------x-----------x-------------x-----------x----------------|
G|----------9-----------8-------------7-----------6----------------|
D|----------9-----------9-------------7-----------7----------------|
A|----7----7-----------6-------------5-----------4-----------------|
E|----------x-----------x-------------x-----------x----------------|


           Cadd9                      Dadd9
E|---------------------------|-------------------------------|
B|--------------3-----3-----|-----------5----5---------------|
G|--------------5-----5-----|-----------7----7---------------|
D|---------5---5-----5-----|-------7---7----7----------------|
A|-----3-------3-----3-----|----5------5----5----------------|
E|---------------------------|-------------------------------|


       Eadd9        Eadd9/D#    Dadd9            Dadd9/C#
God love us so much that gave up his son.
               Cadd9                           Dadd9
Can you hear what heís trying to say


(these following are just arpeggios)

      Cadd9         Dadd9
He loves you always.

(the Cadd9 and Dadd9 are just plucked chords)
         Cadd9          Dadd9           G Bm C (intro)    near end G Bm Em D C D
Even if you donít love him today


tabbed by someone.

hills represent =)
Related for Invasion Band - How Do I Say I Love You tab