Song name
# A B C D E F G H I J K L M N O P Q R S T U V W X Y Z

Misc Unsigned Bands - Lala Band - Lazy tab

intro
E|-------------------------------|
B|-------------------------------|
G|-------------------------------|
D|-------------------------------|
A|-------------------------------|
E|--0-0-0-0-0-0-3-3-0-0-0-0-0----|

verse
E|----------------------|
B|----------------------|
G|----------------------|
D|----------------------|
A|--9-9-11----7-7-9-----|
E|--7-7-9-----5-5-7-----|

E|-------------------------|
B|-------------------------|
G|-------------------------|     x2
D|-------------------------|
A|-0-0-9---0-0-0-9-10------|
E|-0-0-7---0-0-0-7-8-------|

E|--------------------------------|
B|--------------------------------|
G|--------------------------------|    x2
D|--------------------------------|
A|-10--10-9--9-9-9-7--7--9--9-9-9-|
E|-8---8--7--7-7-7-5--5--7--7-7-7-|

E|---------------------|
B|---------------------|
G|---------------------|         x2
D|-9-9------7-7-7------|
A|-7-7-9----5-5-55-7---|
E|-----7---------3-5---|

E|-------------------------------|
B|-------------------------------|
G|-------------------------------|       x2
D|-9--9----------7--7------------|
A|-7--7-9--9-9-9-5--5-7--7-7-7---|
E|------7--7-7-7------5--5-5-5---|


Go into chorus by sliding on your low E string from the 5th fret to the 15th fret.


Play chorus after the first and second verse and after you play it the second time go
into the solo which is below the chorus. After the third verse (also the last verse)
play the chorus once then on the sencond time hold the last chord for a count of 16 and 
the song.

chorus
E|---------------------------------------------|
B|---------------------------------------------|
G|-9----------5----------7----------2----------|
D|-7----------3----------5----------0----------|
A|---------------------------------------------|
E|---------------------------------------------|

E|---------------------------------------------|
B|---------------------------------------------|
G|-9-9--9--9--5-5--5--5--7-7--7--7--2-2--2--2--|     x2
D|-7-7--7--7--3-3--3--3--5-5--5--5--0-0--0--0--|
A|---------------------------------------------|
E|---------------------------------------------|

E|---------------------------------------------|
B|---------------------------------------------|
G|-9----------5----------7----------2----------|
D|-7----------3----------5----------0----------|
A|---------------------------------------------|
E|---------------------------------------------|

solo
E|------------------------------------------------------------------|
B|----------------------------------------------5-------------------|
G|---5/7-9-----7-9-7-----------------------5-7*---7-5---------------|
D|---------7-9-------9-7-----------7^-5*-7------------5-7*-5-3------|
A|-----------------------9-7---7-9-----------------------------3-5--|
E|---------------------------9^-------------------------------------|
Tap to rate this tab
 
# A B C D E F G H I J K L M N O P Q R S T U V W X Y Z