Song name
# A B C D E F G H I J K L M N O P Q R S T U V W X Y Z

Misc Unsigned Bands - Along These Lights - Alive Till Dawn tab

This Is Actually My Band's Song But I Added It So The Rest Of The Band Can Look At The 
Anytime They Want.

you can listen to the song at myspace.com/alongtheselights

Check Us Out!!!

(Figure Out Strumming For Everything)

Intro:
e|------------------------------|
B|-----10------10-----8------10-|
G|----0-------------------------|
D|---9--------0------0------0---|
A|-10--------9------7------9----|
E|---------10------8-----10-----|

1st Verse/2nd Verse/3rd Verse/Pre-Chorus:
(all three parts are the same chords and chord pregretion just figure out strumming)
e|---------------|
B|-10--10--8--10-|
G|-0---0---0--0--|
D|-9---0---0--0--|
A|-10--9---7--9--|
E|-----10--8--10-|

Chorus:
(Chord Changing is Faster)
e|-------------------------|
B|-10--10--7--8--10--8--10-|
G|-0---0---0--0--0---0--0--|
D|-9---0---6--0--0---0--0--|
A|-10--9---7--7--9---7--9--|
E|-----10-----8--10--8--10-|

Bridge:
e|-------------|
B|-7--8--10--8-|
G|-0--0--0---0-|
D|-6--0--0---0-|
A|-7--7--9---7-|
E|----8--10--8-|


Ok So The Way Song Goes Is Like This:

Intro
1st Verse
2nd Verse
Pre-Chorus
Chorus
Bridge
3rd Verse
Pre-Chorus
Chrous
Bridge

Lyrics:

(Intro)

(1st Verse)
One Word Only
Just Whisper It Now
Goodbye

(2nd Verse)
I Never Had The Chance To Say It
Oh How I Wish I Could Go Back And Show You
How Much You Mean To Me
Please Don't Do This To Yourself
With Your Mangled Flesh

(Pre-Chorus)
Is It Really Worth It
Is It Really Worth It
Is It Really Worth It
To Feel This Way

(Chorus)
Clear Your Past From The Shame
Wake Up And Get Away
From This
From This

(Bridge)
I Want To Be With You But I Know That It's Wrong
And It's Wrong That We Did This To Ourselves
I'll Fight Everyday Just For You To Say My Name
To Know You Still Haven't Forgotten Me

(3rd Verse)
I'm Lost Without You
I'm Lost Without You
I Need You
I Don't Know Why I Bother To Go On

(Pre-Chorus)
Is It Really Worth It
Is It Really Worth It
Is It Really Worth It
To Feel This Way

(Chorus)
Clear Your Past From The Shame
Wake Up And Get Away
From This
From This

(Bridge)
Just Tell Me You Still Love Me Or These Pills And This Knife
Will Finally End My Strife
I Never Thought That You'd Be The Death Of Me
But Now I See That Your My Ending
Tap to rate this tab
# A B C D E F G H I J K L M N O P Q R S T U V W X Y Z